Song name
# A B C D E F G H I J K L M N O P Q R S T U V W X Y Z

Misc Unsigned Bands - Iu - Baramkkot Wind Flower chords

Highlighted       Show chord diagrams
-----------------------------------------------------------------------------
		              Baramkkot (Wind Flower) - IU
-----------------------------------------------------------------------------

Tabbed by: mzik_man@yahoo.com
(Queen Seon Duk OST)

Tuning: Standard

Chords:
     
    E  G#m7   C#m  Bm7  Bm/E  A B7sus4  Am/B  
e|--0---4------4----2----2----0---2--------------|
B|--0---4------5----3----3----2---0------1-------|
G|--1---4------6----2----4----2---2------2-------|
D|--2---4------6----4----2----2---2------2-------|
A|--2---6------4----2---------0---2------2-------|
E|--0---4----------------------------------------|

    B/D#  Bm/D  E7  AM7  Am/C  B7sus4  E/G#  D#m7b5
e|---------------4---0-----------2------4------2----|
B|---4-----3-----3---2----1------0------5------2----|
G|---4-----4-----4---1----2------2------4------2----|
D|---4-----4-----2---2----2------2-------------1----|
A|---6-----5---------0----3------2------------------|
E|--------------------------------------4-----------|

    G#sus4 EM7  C#m7b5  B6/C# F#sus4  GM7  CM7
e|----4-----4------------2------2------2----3------|
B|----4-----4-----5------2------2------3----5------|
G|----6-----4-----4------2------4------4----4------|
D|----4-----2-----5------2------2------5----5------|
A|----4-----------4------2------2-----------3------|
E|----4-------------------------2------------------|


Intro: E-G#m7-C#m-Bm7-Bm7/E-A-B7sus4-Am/B


E              B/D#            Bm/D     
Idaero doraseolgeomyeon sarajilgeomyeon
    E7       AM7
Pieonaji anhasseo
A      Am/C   G#m7          C#m7   
Ireoke barabomyeonseo sumimakhimyeon
             F#m7     B7sus4   E
Nuneul gameunchae sarado joheulkka


        E       E/G#
Bojianhado boyeoseo
          C#m7
Deutjianhado deullyeoseo
              A           B7sus4
Geudae songyeore dasi saranan
         E        Bm7-E7
Baramkkoccheoreom
         D#m7b5  G#sus4-G
Bagosipeodo motganeun
         C#m7 F#7
Angosipeodo mosanneun
              F#m7      B7sus4  E  
Geudae sonkkeuchi nae mame daheuni


Instrumental: E-E/G#-C#m7-A-B7sus4-EM7


Am      D           GM7    CM7
Ginginbami jinagonamyeon alkka
        C#m7b5   F#sus4 F# Bsus4-B       
Nunmulsoge utgoinneun sarangeul

          E        E/G#
Japgosipeodo motjamneun
         C#m7    
Gagosipeodo motganeun
           A           B7sus4 
Geudae maeume dasi saranan
         E        B/C#-C#
Baramkkoccheoreom


        F#      
Bojianhado boyeoseo
          A#m7       D#m7
Deutjianhado deullyeoseo
           G#m7       B6/C#-C#  F#
Barame sillyeo heuteojyeo nallimyeo
           G#m7       B6/C#-C#  F# D#m7-Bm7-B6/C#-F#             
Geudae maeume heuteojyeo nallimyeo


Tap to rate this tab
# A B C D E F G H I J K L M N O P Q R S T U V W X Y Z