Song name
# A B C D E F G H I J K L M N O P Q R S T U V W X Y Z

Misc Unsigned Bands - James Shore - Song 1 tab

Drop C

  intro       "clean"
D|------------------------------------------------------------------------|
A|--6---6---6---6---6---6---6---6---6---6---6---6---6---6---6---6---5---5-|
F|----7---7---7---7---7---7---7---7---5---5---5---5---5---5---5---5---5---|
C|------------------------------------------------------------------------|
G|------------------------------------------------------------------------|
C|------------------------------------------------------------------------|

D|------------------------------------------------------------------------|
A|--5---5---5---5---5---5---3---3---3---3---3---3---3---3---X2------------|
F|5---5---5---5---5---5---5---3---3---3---3---3---3---3---3---------------|
C|------------------------------------------------------------------------|
G|------------------------------------------------------------------------|
C|------------------------------------------------------------------------|

   Bridge
D|------------------------------------------------------------------------|
A|------------------------------------------------------------------------|
F|------------------------------------------------------------------------|
C|------------------------------------------------------------------------|
G|-5-5-7-5-8-5-3-3-3-3-3-3-3-3-5-5-7-5-8-5-10-10-10-12-12-12-13-12--------|
C|-0-0-0-0-0-0-3-3-3-3-3-3-3-3-0-0-0-0-0-0-0--0--0--0--0--0--0--0---------|

    Verse
D|------------------------------------------------------------------------|
A|------------------------------------------------------------------------|
F|------------------------------------------------------------------------|
C|-3-3-3-3-3-3-3-3-10-10-10-10-10-10-10-10-7-7-7-7-7-7-7-7-0-0-0-0-2-2-2-2|
G|-3-3-3-3-3-3-3-3-10-10-10-10-10-10-10-10-7-7-7-7-7-7-7-7-0-0-0-0-2-2-2-2|
C|-3-3-3-3-3-3-3-3-10-10-10-10-10-10-10-10-7-7-7-7-7-7-7-7-0-0-0-0-2-2-2-2|
Tap to rate this tab
# A B C D E F G H I J K L M N O P Q R S T U V W X Y Z