Song name
# A B C D E F G H I J K L M N O P Q R S T U V W X Y Z

Misc Unsigned Bands - It Prevails - An Anomaly tab

-----------------------------------------------------------------------------
			     An Anomaly - It Prevails
-----------------------------------------------------------------------------
Tabbed by: ilovemetal6
Email: Cycoloco666@yahoo.com

Tuning:Drop B (B F# B E G# C#)

Intro: You can figure out the rythym
C#|---2p0-------------------------------------------------------------------|
G#|-------3-----------------------------------------------------------------|
E|----------0-----------------5---------------------------------------------|
B|------------4-----2----0----5---------------------------------------------|
F#|-----------------2----0----3---------------------------------------------|
B|------------------2----0--------------------------------------------------|

Verse:
C#|-------------------------------------------------------------------------|
G#|-------------------------------------------------------------------------|
E|------------7-------9-------11------12------------------------------------|
B|----2---0---x---2---x---2---x---2---x-------------------------------------|
F#|---2---0---5---2---7---2---9---2---10------------------------------------|
B|----2---0-------2-------2-------2-----------------------------------------|

All you really need to know is that, then the rest is super easy to figure out. rate and 
thanks :D
Tap to rate this tab
 
# A B C D E F G H I J K L M N O P Q R S T U V W X Y Z