Song name
# A B C D E F G H I J K L M N O P Q R S T U V W X Y Z

Misc Unsigned Bands - Parallax - Pura tab

-------------------------------------------------------------------------------
			     Pura - Parallax
-------------------------------------------------------------------------------
Tabbed by: Miles
Email:

Tuning: Standard

e|----17---------------------15-15-15------------------------17-17-17-17-17--|
B|--------18-17----18-18-17-----------18-17-15-------15-17-------------------|
G|-17---------------------------------------------17-------------------------|
D|---------------------------------------------------------------------------|
A|---------------------------------------------------------------------------|
E|---------------------------------------------------------------------------|

e|----17---------------------20-20-20-18-17-----------------17-17-17-17-17---|
B|--------18-17----18-18-17-----------------18--17-18-17---------------------|
G|-17------------------------------------------------------------------------|
D|---------------------------------------------------------------------------|
A|---------------------------------------------------------------------------|
E|---------------------------------------------------------------------------|

    If I could travel around the globe
e|----20-18-17--------------------------------------------------------------|
B|--------------17-18-17----------------------------------------------------|
G|-17-----------------------------------------------------------------------|X4
D|--------------------------------------------------------------------------|
A|--------------------------------------------------------------------------|
E|--------------------------------------------------------------------------|

   The kids a 2 13 he envied
e|--------------------------------------------------------------------------|
B|------------------13---13-------------------------------------------------|
G|----14----------------------------------14--------------------------------|
D|-12----15-14---12----12---12---------12----15-14---14-15-14-12------------|X1
A|---------------------------------------------------------------15---------|
E|--------------------------------------------------------------------------|



| /  slide up
| \  slide down
| h  hammer-on
| p  pull-off
| ~  vibrato
| +  harmonic
| x  Mute note
===============================================================================

Tap to rate this tab
# A B C D E F G H I J K L M N O P Q R S T U V W X Y Z