Song name
# A B C D E F G H I J K L M N O P Q R S T U V W X Y Z

Misc Unsigned Bands - Broadmoore - Our Shells Are Glass tab

intro
e|--------------------|--------------------|
b|-3--------3---------|-3--------3---------|
g|-3-----------3------|-3-----------3------|
d|-5--------------5---|-5--------------5---|
a|--------------------|--------------------|
d|--------------------|--------------------|

verse: a
e|-------------------------------------|
b|-------------------------------------|
g|-------------------------12-10-12----|
d|-------------13--12-13---13-12-13----|
a|-11--10------------------------------|
d|-------------------------------------|

verse: b
(strummed more times than written)
e|--------------------|--------------------|
b|--------------------|--------------------|
g|-12---12--10--8---8-|-12---12--10--8---8-|
d|-12---13--12--8--10-|-12---13--12--8--10-|
a|--------------------|--------------------|
d|--------------------|--------------------|

pre-chorus
e|-------------|-------------|
b|-------------|-------------|
g|-------------|-------------|
d|-3--2--------|-3--2--------|
a|-1--0--5--1--|-1--0--5--1--|
d|-------5--1--|-------5--1--|

chorus
e|---------------------11-10------------|            |-----|
b|---------------10-11--------10-11-----|            |-----|
g|-7----7----10----------------------8--|            |-----|
d|-8----8-----8----------------------7--|            |-----|
a|------5-----6----------------------8--|            |--5--|
d|-8----0-------------------------------| x2, then.. |--5--|


bridge - tremolo picking
e|-----------------------18-17-13-11-10-----------|
b|--------------------------------------11--------|
g|-14-15-17-19--14-15-17-------------------10-8-7-|
d|------------------------------------------------|
a|------------------------------------------------|
d|------------------------------------------------| x2


e|----------------------|
b|----------------------|
g|-7~--8---10---7h10p7--|
d|----------------------|
a|----------------------|
d|----------------------|

e|--------------------------------------------------|
b|-10---10----10---10-------11----11----------------|
g|---------------------------------------10---8-----|
d|----8----8-----10---10/12----12----12-----0----0--|
a|--------------------------------------------------|
d|--------------------------------------------------|
Tap to rate this tab
# A B C D E F G H I J K L M N O P Q R S T U V W X Y Z