Song name
# A B C D E F G H I J K L M N O P Q R S T U V W X Y Z

Misc Unsigned Bands - Broadmoore - Good Morning tab

"Good Morning"

Drop D tuning

e|-5-5-5-5-5-5-5---|
b|-3-3-3-3-3-3-3---|
g|-3-3-3-3-3-3-3---|
d|-0-0-0-0-0-0-0---|
a|-0-0-0-0-0-0-0---|
d|-0-0-0-0-0-0-0---| (4 times)

e|-5--3--1--0---|
b|--------------|
g|--------------|
d|--------------|
a|--------------|
d|--------------| (2 times, tremolo pick with delay)

e|-5------------|
b|----8--6--5---|
g|--------------|
d|-------7--7---|
a|-5--5--0--0---|
d|-0--0---------| (2 times)

e|-------------|---------------|
b|---------14--|-----------14--|
g|-11--14------|-11--9--6------|
d|---------11--|-----------11--|
a|-9---12------|-9---7--4------|
d|-0-----------|-0-------------| (pre-chorus, tremolo pick)

e|-0------|--0-----|
b|-10-----|--10----|
g|-11-----|--11----|
d|-12-----|--12----|
a|-9------|--10----|
d|-0------|--0-----| (clean part before chorus)

e|-------------|-----------12--14--|
b|-14----15----|-14----15----------|
g|-11----11----|-11----11----------|
d|-12----12----|-12----12----------|
a|-0-----0-----|-0-----0-----------|
d|-0-----0-----|-0-----0-----------| (chorus a)

e|------------------------|
b|------------------------|
g|-11--11--14------11--11-|
d|-12---------14---12--12-|
a|-14--12----------10--9--|
d|------------------------| (chorus b)

e|-0------|--0-----|
b|-10-----|--10----|
g|-11-----|--11----|
d|-12-----|--12----|
a|-9------|--10----|
d|-0------|--0-----| (clean part after chorus)

e|-5-5-5-5-5-5-5---|
b|-3-3-3-3-3-3-3---|
g|-3-3-3-3-3-3-3---|
d|-0-0-0-0-0-0-0---|
a|-0-0-0-0-0-0-0---|
d|-0-0-0-0-0-0-0---| (4 times)

e|-5--3--1--0---|
b|--------------|
g|--------------|
d|--------------|
a|--------------|
d|--------------| (2 times, tremolo pick with delay)

e|-5------------|
b|----8--6--5---|
g|--------------|
d|-------7--7---|
a|-5--5--0--0---|
d|-0--0---------| (2 times)

e|-------------|-----------12--14--|
b|-14----15----|-14----15----------|
g|-11----11----|-11----11----------|
d|-12----12----|-12----12----------|
a|-0-----0-----|-0-----0-----------|
d|-0-----0-----|-0-----0-----------| (chorus a)

e|------------------------|
b|------------------------|
g|-11--11--14------11--11-|
d|-12---------14---12--12-|
a|-14--12----------10--9--|
d|------------------------| (chorus b)


e|-5-5-5-5-5-5-5---|
b|-3-3-3-3-3-3-3---|
g|-3-3-3-3-3-3-3---|
d|-0-0-0-0-0-0-0---|
a|-0-0-0-0-0-0-0---|
d|-0-0-0-0-0-0-0---| (4 times)

e|-5-----5-----5-----5-----5-----5----|
b|---3-----3-----3-----3-----3-----3--|
g|-----3-----3-----------3-----3------|
d|------------------------------------|
a|------------------------------------|
d|------------------------------------| (2 times)

e|-10-------10------10------10-------10------10----|
b|----10-------10------7-------10-------10------7--|
g|-------7--------7---------------7--------7-------|
d|-------------------------------------------------|
a|-------------------------------------------------|
d|-------------------------------------------------| (3 times)

e|-------------------------------------------------|
b|-------------------------------------------------|
g|----11----11----11----11----11----11----11----11-|
d|-12----12----12----12----12----12----12----12----|
a|-------------------------------------------------|
d|-------------------------------------------------| (bridge)

e|-------------------------------------------------|
b|-------------------------------------------------|
g|----11----11----11----11----14----14----12----12-|
d|-12----12----12----12----12----12----12----12----|
a|-------------------------------------------------|
d|-------------------------------------------------|

e|-------------------------------------------------|
b|-------------------------------------------------|
g|----11----11----11----11----11----11----11----11-|
d|-12----12----12----12----12----12----12----12----|
a|-------------------------------------------------|
d|-------------------------------------------------|

e|-------------------------------------------------|
b|----------------------------14----------------15-|
g|----11----11----11----11----------11----11-------|
d|-12----12----12----12----12----12----12----12----|
a|-------------------------------------------------|
d|-------------------------------------------------|

e|-------------------------------------------------|
b|----------------------------------------------15-|
g|----11----11----11----11----11----11----11-------|
d|-12----12----12----12----12----12----12----12----|
a|-------------------------------------------------|
d|-------------------------------------------------|

e|----------------------------------12----14-------|
b|----------------------------15-------------------|
g|----11----11----11----11-------------------------|
d|-12----12----12----12----12----12----12----12----|
a|-------------------------------------------------|
d|-------------------------------------------------|

e|----------------------------14-------------------|
b|-------------------------------------------------|
g|----11----11----11----11----------11----11----11-|
d|-12----12----12----12----12----12----12----12----|
a|-------------------------------------------------|
d|-------------------------------------------------|

e|-14-----------------------14-----------------------|
b|---------------------------------------------------|
g|--------11----11----11----------11----11----11-----|
d|-----12----12----12----12----12----12----12----12--|
a|---------------------------------------------------|
d|---------------------------------------------------|

e|-14-----------------------14-----------------------|
b|---------------------------------------------------|
g|--------11----11----11----------11----11----11-----|
d|-----12----12----12----12----12----12----12----12--|
a|---------------------------------------------------|
d|---------------------------------------------------|

 "The spring sends..."
e|-------------------------------------------------------|
b|-14-14-14-14--14-14-14-14----15-15-15-15--15-15-15-15--|
g|-11-11-11-11--11-11-11-11----11-11-11-11--11-11-11-11--|
d|-12-12-12-12--12-12-12-12----12-12-12-12--12-12-12-12--|
a|-------------------------------------------------------|
d|-------------------------------------------------------|
                             "...off to blame the world.."
e|---------------------------------------------------------------|
b|-14-14-14-14--14-14-14-14--------------------------------------|
g|-11-11-11-11--11-11-11-11--------------------------------------|
d|-12-12-12-12--12-12-12-12----14-14-14-14-12-12-12-12-10-10-10--|
a|---------------------------------------------------------------|
d|---------------------------------------------------------------|


e|------------------------------------------------------|
b|------------------------------------------------------|
g|-11-11-11-11--11-11-11-11---11-11-11-11--11-11-11-11--|
d|-12-12-12-12--12-12-12-12---12-12-12-12--12-12-12-12--|
a|--9--9--9--9---9--9--9--9----9--9--9--9---9--9--9--9--|
d|------------------------------------------------------|

e|------------------------------------------------------|
b|------------------------------------------------------|
g|-11-11-11-11--11-11-11-11---11-11-11-11---------------|
d|-12-12-12-12--12-12-12-12---12-12-12-12---------------|
a|--9--9--9--9---9--9--9--9----9--9--9--9---4^----------|
d|------------------------------------------------------|

-chorus


e|-9--10--12----9--10--12----19---17---15---14---|
b|-----------------------------------------------|
g|-6---7---9----6---7---9----16---14---12---11---|
d|-----------------------------------------------|
a|-----------------------------------------------|
d|-----------------------------------------------| tag. end on D.
Tap to rate this tab
 
# A B C D E F G H I J K L M N O P Q R S T U V W X Y Z