Song name
# A B C D E F G H I J K L M N O P Q R S T U V W X Y Z

Misc Unsigned Bands - Broadmoore - A New Light With New Color tab

"A New Light With New Color"
Standard E tuning


E|-------------------------------------------------------------------|
B|-12-12-12-12-12-12-12-12-12-12-12-12-12-12-12-12-12-12-12-12-12-12-|
G|-13-13-13-13-13-13-13-13-13-13-13-13-13-13-13-13-13-13-13-13-13-13-|
D|-13-13-13-13-13-13-13-13-13-13-13-13-13-13-13-13-13-13-13-13-13-13-|
A|-11-11-11-11-11-11-11-11-11-11-11-11-11-11-11-11-11-11-11-11-11-11-| (tremolo pick)
E|-------------------------------------------------------------------| (intro)


E|-4---0--|
B|-4---5--|
G|-4---4--|
D|-6---6--|
A|-6---7--| (tremolo pick)
E|-4---0--| (2 times)


E|-0------------------------------------------------------------------|
B|-0------------------------------------------------------------------|
G|-8------------------------------------------------------------------|
D|-9------------------------------------------------------------------|
A|--------------------------------------------------------------------|
E|--------------------------------------------------------------------| (let it ring)


E|---------0-------|
B|-----0-----0---0-|
G|---8---8-----8---|
D|-9---------------|
A|-----------------|
E|-----------------| (repeat thru verse)


E|-11-11---11-11---11-11---7-7--7-7---------------------------------------------|
B|------------------------------------7-7--7-7--7-7--0-0---0--------------------|
G|--8--8----8--8----8--8---8-8--8-8---8-8--8-8--8-8--8-8---8--4-4-4-4--6-6-6-6--|
D|--9--9----9--9----9--9---9-9--9-9---9-9--9-9--9-9--9-9---9--6-6-6-6--8-8-8-8--|
A|------------------------------------------------------------------------------| (2 times)
E|------------------------------------------------------------------------------| (pre-chorus)

E|-4---0--|
B|-4---5--|
G|-4---4--|
D|-6---6--| (2 times)
A|-6---7--| (tremolo pick)
E|-4---0--| (chorus A)


Guitar fill that leads into 2nd half of chorus)

	E|-4-4-4-4--6-6-6--|
	B|-----------------|
	G|-----------------|
	D|-----------------|
	A|-----------------|
	E|-----------------|


  "The breeze whose best interest is me..."
E|--7---7-----6---6-------------------------------------------|
B|-----------------------7---7-----5----5-----4^5^4-----------|
G|----6---6-----6---6------6---6------6----6-----------9------|
D|-----------------------------------------------------6------|
A|-----------------------------------------------------7------| (2 times)
E|-----------------------------------------------------0------| (chorus B)


E|--7-X-X--7-X-X--7--6-------------------------|
B|----------------------X-X-7--X-X-7--X-X-7--5-|
G|---------------------------------------------|
D|---------------------------------------------|
A|---------------------------------------------|
E|---------------------------------------------| (verse 2 A)


E|------------2-----2------0-------------------|
B|-X-X-------------------4-----4----4----------|
G|-X-X-----4------4----4-----4---4-------------|
D|-X-X---2------2------------------------------|
A|---------------------------------------------|
E|-------------------------------------2-------| (verse 2 B)


E|--7-----7--6-----6-------------------|--7-----7--6-----6-----------------|
B|--------------------7----7--5-----5--|--------------------7----7--4^5^4--|
G|-------------------------------------|-----------------------------------|
D|-----6--------6--------6-------6-----|-----6--------6--------6-----------|
A|-------------------------------------|-----------------------------------|
E|-------------------------------------|-----------------------------------| 
(pre-chorus guitar break)


-Chorus

E|--7-7-7-7-7--6------------------|
B|--4-4-4-4-4--4---7-7-7-7-7--5---|
G|--4-4-4-4-4--4---4-4-4-4-4--4---|
D|--6-6-6-6-6--6---6-6-6-6-6--6---|
A|--------------------------------| (4 times)
E|--------------------------------| (bridge build-up A)


E|----------------------------------------------------------|
B|----------------------------------------------------------|
G|-/11-11-11-11-11-11-11-11--11-11-11-11-11-11-11-11---11---|
D|-/11-11-11-11-11-11-11-11--11-11-11-11-11-11-11-11---11---|
A|-/-9--9--9--9--9--9--9--9---9--9--9--9--9--9--9--9----9---|
E|----------------------------------------------------------| (bridge build-up B)


E|-0--0--0--0---0--0--0--0---4--4--4--4---2--2--2--2--|
B|-0--0--0--0---0--0--0--0---4--4--4--4---2--2--2--2--|
G|-1--1--1--1---8--8--8--8---4--4--4--4---3--3--3--3--|
D|-2--2--2--2---9--9--9--9---6--6--6--6---4--4--4--4--|
A|-2--2--2--2---6--6--6--6---6--6--6--6---4--4--4--4--| (8 times)
E|-0--0--0--0---7--7--7--7---4--4--4--4---2--2--2--2--| (bridge)

Optional guitar fill at the end of the last bar of bridge:

	E|-------------------------------------|
	B|-------------------------------------|
	G|-------------------------------------|
	D|--------1^2^1-------4-4-4-4-4-4-4-4--|
	A|-----2--------2-----4-4-4-4-4-4-4-4--|
	E|--4--------------4--2-2-2-2-2-2-2-2--|

E|-0-----0-----0-----0-------6-----7-----7-----6-----|
B|-7-----7-----7-----7-------9-----9-----7-----7-----|
G|-9-----9-----9-----8-------8-----8-----6--6--6--6--|
D|----9-----9-----9-----9-------9-----9--------------|
A|---------------------------------------------------| (2 times)
E|---------------------------------------------------| (bridge continued)


E|----------------------------------------|
B|--------------------12---14---11--------|
G|-9---11---8------------------------11---|
D|--------------9-------------------------| (2 times)
A|----------------------------------------| (tremolo pick)
E|----------------------------------------| (bridge continued)

-chorus


E|------------------------------------------------------|
B|------------------------------------------------------|
G|--------------------------------------------------8---|
D|--6---X--X----6---X--X----9---X--X----11----------9---|
A|--6---X--X----6---X--X----6---X--X----11---7--9---7---|
E|--4---X--X----6---X--X----7---X--X-----9----------0---|
Tap to rate this tab
 
# A B C D E F G H I J K L M N O P Q R S T U V W X Y Z