Song name
# A B C D E F G H I J K L M N O P Q R S T U V W X Y Z

Misc Unsigned Bands - Theflamingtpots - Walking On Hot Cement tab

Feels like I'm walking on cement...............................yeah!

e----0---------------0------------------0--------------------0----------|
B-------3---6------------3----5------------3------6--------------3----5-|
G-----------------------------------------------------------------------|
D-----------------------------------------------------------------------|
A-----------------------------------------------------------------------|
E-----------------------------------------------------------------------|

Nan nah nah nah nah nuh nuh nuh nuh nuh nuh
e-------------------------------------------|
B--4-4-4-4---4---7-8------------------------|
G-----------------------3--2-2-1-0----------|
D-------------------------------------------|
A-------------------------------------------|
E-------------------------------------------|
Nan nah nah nah nah nuh nuh nuh nuh nuh nuh
e-------------------------------------------|
B-------------------------------------------|
G--4-4-4-4---4---7-8------------------------|
D-----------------------3--2-2-1-0----------|
A-------------------------------------------|
E-------------------------------------------|
Nan nah nah nah nah nuh nuh nuh nuh nuh nuh
e-------------------------------------------|
B--4-4-4-4---4---7-8------------------------|
G-----------------------3--2-2-1-0----------|
D-------------------------------------------|
A-------------------------------------------|
E-------------------------------------------|
Nan nah nah nah nah nuh nuh nuh nuh nuh nuh
e-------------------------------------------|
B-------------------------------------------|
G--4-4-4-4---4---7-8------------------------|
D-----------------------3--2-2-1-0----------|
A-------------------------------------------|
E-------------------------------------------|

Feels like I'm walking on cement,............................. yeah

e----0---------------0------------------0--------------------0----------|
B-------3---6------------3----5------------3------6--------------3----5-|
G-----------------------------------------------------------------------|
D-----------------------------------------------------------------------|
A-----------------------------------------------------------------------|
E-----------------------------------------------------------------------|
Like I'm.................................walkin'............on cement.
e----0---------------0------------------0--------------------0----------|
B-------3---6------------3----5------------3------6--------------3----5-|
G-----------------------------------------------------------------------|
D-----------------------------------------------------------------------|
A-----------------------------------------------------------------------|
E-----------------------------------------------------------------------|
Nan nah nah nah nah nuh nuh nuh nuh nuh nuh
e-------------------------------------------|
B--4-4-4-4---4---7-8------------------------|
G-----------------------3--2-2-1-0----------|
D-------------------------------------------|
A-------------------------------------------|
E-------------------------------------------|
Nan nah nah nah nah nuh nuh nuh nuh nuh nuh
e-------------------------------------------|
B-------------------------------------------|
G--4-4-4-4---4---7-8------------------------|
D-----------------------3--2-2-1-0----------|
A-------------------------------------------|
E-------------------------------------------|
Tap to rate this tab
# A B C D E F G H I J K L M N O P Q R S T U V W X Y Z