Song name
# A B C D E F G H I J K L M N O P Q R S T U V W X Y Z

Misc Unsigned Bands - Miseuphoria - Return To Sender tab

-------------------------------------------------------------------------------
			     Return to Sender - MisEuphoria
-------------------------------------------------------------------------------
Tabbed by: Eric Nicholls Written by:(MISEUPHORIA) www.Myspace.com/MisEuphoria
Email: MisEuphoria@comcast.net

Tuning: Standard Drop "D"

INTRO/CHORUS:
         1st Guitar                          
E|------------------------------------------------------------------------|
B|------------------------------------------------------------------------|
G|----------------7-----------------7-------------------------------------|
D|---9--7--0--9---0-----9--7--0--9--0---9--7--0--5-5-x-5-5-x-7-7-x-7-7----|
A|---9--7--0--9---5---- 9--7--0--9--5---9--7--0--5-5-x-5-5-x-7-7-x-7-7----|
D|---9--7--0--9---------9--7--0--9------9--7--0--5-5-x-5-5-x-7-7-x-7-7----|

    
  VERSE: 
E|------------------------------------------------------------------------|
B|------------------------------------------------------------------------|
G|------------------------------------------------------------------------|
D|--------9-----9-----9-----9-----9--9--------9-----9-----9-----9---------|
A|--------9-----9-----9-----9-----9--9--------9-----9-----9-----9---------|
D|--9--9--9--9--9--9--9--9--9--9--9--9--9--9--9--9--9--9--9--9--9---------|


                            2ND TIME
E|----------------------[------------------|
B|----------------------[---6--9--6--2-----|
G|---6---2---6---9------[---0--0--0--0-----|
D|---0---0---0---0------[------------------|
A|----------------------[------------------|
D|----------------------[------------------|


SOLO CHORDS:
e|-------------------------------------------------------------------------|
B|----7---------7---------7---------7--------7-----------------------------|
G|----7---------7---------7---------7--------7-----------------------------|
D|----7---9--9--7---9--9--7---9--9--7--9--9--7-9--9----7--9----------------|
A|--------9--9------9--9------9--9-----9--9----9--9----7--9----------------|
E|--------9--9------9--9------9--9-----9--9----9--9----7--9----------------|


e|----------------------------------x---------x---------x------------------|
B|----------------------------------x---------x---------x------------------|
G|----------------------------------x---------x---------x------------------|
D|--9--0--4--5--0--5--7--0--7--9--9-x-7--9--9-x-7--9--9-x-7--9--0--7--9----|
A|--9--0--4--5--0--5--7--0--7--9--9-x-7--9--9-x-7--9--9-x-7--9--0--7--9----|
D|--9--0--4--5--0--5--7--0--7--9--9-x-7--9--9-x-7--9--9-x-7--9--0--7--9----|


RETURN TO SENDER

Im killing time and Im waiting here for you
I havent seen you for the past 3 days

Im crossing lines and Im telling your secrets
All my thoughts are buried in shades of grey

Return to Sender (Sender) 
This letter was marked the day you died
Reoccurring memories that speak the truth and bring to light the pain

Return to Sender (Sender)
This letter was marked red with your blood
Reaffirming all the things that speak the truth and bring to life the change

Its 3am and I watched this rose die 
The walls bled and the darkness fell like rain

Ill give you time to finish your story
The walls red and it shows you chose your grave

Return to Sender (Sender) 
This letter was marked the day you died
Reoccurring memories that speak the truth and bring to light the pain

Return to Sender (Sender)
This letter was marked red with your blood
Reaffirming all the things that speak the truth and bring to life the change


************************************

| /   slide up
| \   slide down
| h   hammer-on
| p   pull-off
| ~   vibrato
| +   harmonic
| x   Mute note
| b   Bend
| pb  Pre-bend
| br  Bend release
| pbr Pre-bend release
| brb Bend release bend

************************************
Tap to rate this tab
 
# A B C D E F G H I J K L M N O P Q R S T U V W X Y Z