Song name
# A B C D E F G H I J K L M N O P Q R S T U V W X Y Z

Misc Unsigned Bands - The Madonna Brothers - Nights Eye tab

Sorry I don't have the rest of the song for you. I happened to figure this one out and I 
to get the intro up here as fast as possible because I know lots of people have been 
for it so here you go!

E|---------------------------------------------------------------|
B|-----17--15-----15--17--18--15--20--15--18-15--17--18--17--15--|
G|-14---------17-------------------------------------------------|  x2
D|---------------------------------------------------------------|
A|---------------------------------------------------------------|
E|---------------------------------------------------------------|

E|-----------------------------------------------------------------|
B|-----18--17--15--17--18--17--15--20--15--18--15--17--18--17--15--|
G|-15--------------------------------------------------------------|  x2
D|-----------------------------------------------------------------|
A|-----------------------------------------------------------------|
E|-----------------------------------------------------------------|
Tap to rate this tab
# A B C D E F G H I J K L M N O P Q R S T U V W X Y Z