Song name
# A B C D E F G H I J K L M N O P Q R S T U V W X Y Z

Misc Unsigned Bands - Killrbucke - The Rising tab

I got this tab from Killrbuckeye's so I'm sure this is accurate.

Tuning: All Guitars in Dropped C
Guitar 1, 2, and 3 are distorted
Guitar 4 is clean

Intro Pt 1    Tempo: 160
G1  e e e e e e e e  e e e e e e e e  e e e e e e e e  e e e e e e e e
D|4|--0---0---0---0-|--0---0---0---0-|--0---0---0---0-|--0---0---0---0-|
A|4|3---3---0---0---|7---7---8---8---|3---3---0---0---|10--10--10--10--|
F| |----------------|----------------|----------------|----------------|
C| |----------------|----------------|----------------|----------------|
G| |----------------|----------------|----------------|----------------|
C| |----------------|----------------|----------------|----------------|
                                                                       |
G3   W                W                W                H.         e e |
   |----------------|----------------|----------------|----------------|
   |----------------|----------------|----------------|----------------|
   |----------------|----------------|----------------|----------------|
   |----------------|----------------|----------------|----------------|
   |-2--------------|-T--------------|-T--------------|-T----------2-2-|
   |-2--------------|-T--------------|-T--------------|-T----------2-2-|
                                                                   . .
G1  e e e e e e e e  e e e e e e e e  e e e e e e e e  e e e e e e e e
   |--0---0---0---0-|--0---0---0---0-|--0---0---0---0-|--0---0---0---0-|
   |3---3---0---0---|7---7---8---8---|3---3---0---0---|10--10--10--10--|
   |----------------|----------------|----------------|----------------|
   |----------------|----------------|----------------|----------------|
   |----------------|----------------|----------------|----------------|
   |----------------|----------------|----------------|----------------|
                                                                       |
G3   W                W                W                H.         e e |
   |----------------|----------------|----------------|----------------|
   |----------------|----------------|----------------|----------------|
   |----------------|----------------|----------------|----------------|
   |----------------|----------------|----------------|----------------|
   |-0--------------|-T--------------|-T--------------|-T----------0-0-|
   |-0--------------|-T--------------|-T--------------|-T----------0-0-|
                                                                   . .
Into Pt 2
G1  e e e e e e e e  e e e e e e e e  e e e e e e e e  e e e e e e e e
   |--0---0---0---0-|--0---0---0---0-|--0---0---0---0-|--0---0---0---0-|
   |3---3---0---0---|7---7---8---8---|3---3---0---0---|10--10--10--10--|
   |----------------|----------------|----------------|----------------|
   |----------------|----------------|----------------|----------------|
   |----------------|----------------|----------------|----------------|
   |----------------|----------------|----------------|----------------|
                                                                       |
G2                                                                     |
   |--3---3---3---3-|----------------|--3---3---3---3-|8---8---7---7---|
   |7---7---5---5---|10--10--12--12--|7---7---5---5---|--8---8---8---8-|
   |----------------|--9---9---9---9-|----------------|----------------|
   |----------------|----------------|----------------|----------------|
   |----------------|----------------|----------------|----------------|
   |----------------|----------------|----------------|----------------|
                                                                       |
G3   W                W                W                H.         e e |
   |----------------|----------------|----------------|----------------|
   |----------------|----------------|----------------|----------------|
   |----------------|----------------|----------------|----------------|
   |----------------|----------------|----------------|----------------|
   |-2--------------|-T--------------|-T--------------|-T----------2-2-|
   |-2--------------|-T--------------|-T--------------|-T----------2-2-|
                                                                   . .
G1  e e e e e e e e  e e e e e e e e  e e e e e e e e  e e e e e e e e
   |--0---0---0---0-|--0---0---0---0-|--0---0---0---0-|--0---0---0---0-|
   |3---3---0---0---|7---7---8---8---|3---3---0---0---|10--10--10--10--|
   |----------------|----------------|----------------|----------------|
   |----------------|----------------|----------------|----------------|
   |----------------|----------------|----------------|----------------|
   |----------------|----------------|----------------|----------------|
                                                                       |
G2                                                                     |
   |--3---3---3---3-|----------------|--3---3---3---3-|8---8---7---7---|
   |7---7---5---5---|10--10--12--12--|7---7---5---5---|--8---8---8---8-|
   |----------------|--9---9---9---9-|----------------|----------------|
   |----------------|----------------|----------------|----------------|
   |----------------|----------------|----------------|----------------|
   |----------------|----------------|----------------|----------------|
                                                                       |
G3   W                W                W                W              |
   |----------------|----------------|----------------|----------------|
   |----------------|----------------|----------------|----------------|
   |----------------|----------------|----------------|----------------|
   |----------------|----------------|----------------|----------------|
   |-0--------------|-T--------------|-T--------------|-T--------------|
   |-0--------------|-T--------------|-T--------------|-T--------------|

Intro Pt 3
***Exact same riff as intro part 2 except all guitars are palm muted and ***guitar 3 now 
this (8 bars played twice,so 16 bars)
G3  e e e sse e e e  e e e sse e q    e e e sse e e e  e e e sse e q
   |----------------|----------------|----------------|----------------|
   |----------------|----------------|----------------|----------------|
   |----------------|----------------|----------------|----------------|
   |----------------|----------------|----------------|----------------|
   |2-2-2-222-2---2-|--2---222-2-2---|2-2-2-222-2---2-|--2---222-2-5---|
   |2-2-2-222-2---2-|--2---222-2-2---|2-2-2-222-2---2-|--2---222-2-5---|
    pm..........R....R...R.............................................
    e e e sse e e e  e e e sse e q    e e e sse e e e  e e e sse e q
   |----------------|----------------|----------------|----------------|
   |----------------|----------------|----------------|----------------|
   |----------------|----------------|----------------|----------------|
   |----------------|----------------|----------------|----------------|
   |0-0-0-000-0---0-|--0---000-0-0---|0-0-0-000-0---0-|--0---000-0-3---|
   |0-0-0-000-0---0-|--0---000-0-0---|0-0-0-000-0---0-|--0---000-0-3---|
    pm..........R....R...R.............................................
Verse 1 Pt 1    Tempo: 210
G1  e e e e e e e e e e e e  e e e e e e e e e e e e
|12|------------------------|------------------------|
|8 |------------------------|------------------------|
|  |------------------------|------------------------|
|  |------4p2h4-5p4h5-------|------4p2h4-5p4h5-7p5h5-|
|  |------------------------|------------------------|
|  |2-2-2-------------2-2-2-|2-2-2-------------------|
    . . .             . . .  . . .                   |
G3  q   H       q.    e e e  q   W               q   |
   |------------------------|------------------------|
   |------------------------|------------------------|
   |------------------------|------------------------|
   |------------------------|------------------------|
   |2-----------------2-2-2-|2-----------------------|
   |2-----------------2-2-2-|2-----------------------|
    .   R       R     . . .  .   R               R
G1  e e e e e e e e e e e e  e e e e e e e e e e e e
   |------------------------|------------------------|
   |------------------------|------------------------|
   |------------------------|------------------------|
   |------------------------|-------------------p-h--|
   |------7p5h7-9p7h9-------|------7p5h7-9p7h9-10910-|
   |0-0-0-------------0-0-0-|0-0-0-------------------|
    . . .             . . .  . . .                   |
G3  q   H       q.    e e e  q   W               q   |
   |------------------------|------------------------|
   |------------------------|------------------------|
   |------------------------|------------------------|
   |------------------------|------------------------|
   |0-----------------0-0-0-|0-----------------------|
   |0-----------------0-0-0-|0-----------------------|
    .  R        R     . . .  .   R               R
G1  e e e e e e e e e e e e  e e e e e e e e e e e e
   |------------------------|------------------------|
   |------------------------|------------------------|
   |------------------------|------------------------|
   |------------------------|------------------------|
   |------7p5---9p5---7p5h7-|------5p4---7p4---5p4h5-|
   |5-5-5-----5-----5-------|0-0-0-----0-----0-------|
    . . .     .     .        . . .     .     .       |
G3  q   H       q.    q   e  q   H       q.    q.    |
   |------------------------|------------------------|
   |------------------------|------------------------|
   |------------------------|------------------------|
   |------------------------|------------------------|
   |5-----------------5---7-|0-----------------x\----|
   |5-----------------5---7-|0-----------------x\----|
    .   R        R    .   .  .    R        R   .
Verse Pt 2
G1&2 e e e e e e e e e e sse  e e e e e e e e e e e e
|12 |------------------------|------------------------|
|8  |------------------------|------------------------|
|   |------------------------|------------------------|
|   |------4p2h4-5p4h5-------|------4p2h4-5p4h5-7p5h5-|
|   |------------------------|------------------------|
|   |2-2-2-------------2-222-|2-2-2-------------------|
     . . .             . ...  . . .
G1&2 e e e e e e e e e e sse  e e e e e e e e e e e e
    |------------------------|------------------------|
    |------------------------|------------------------|
    |------------------------|------------------------|
    |------------------------|-------------------p-h--|
    |------7p5h7-9p7h9-------|------7p5h7-9p7h9-10910-|
    |0-0-0-------------0-000-|0-0-0-------------------|
     . . .             . ...  . . .
G1&2 e e e e e e e e e e e e  e sse e e e e e e e e e
    |------------------------|------------------------|
    |------------------------|------------------------|
    |------------------------|------------------------|
    |------------------------|------------------------|
    |------7p5---9p5---7p5h7-|------5p4---7p4---5p4h5-|
    |5-5-5-----5-----5-------|0-000-----0-----0-------|
     . . .     .     .        . ...     .     .
Verse 1 Pt 3
G1  e e e e e e e e e e sse  e e e e e e e e e e e e
|12|------------------------|------------------------|
|8 |------------------------|------------------------|
|  |------------------------|------------------------|
|  |------4p2h4-5p4h5-------|------4p2h4-5p4h5-7p5h5-|
|  |------------------------|------------------------|
|  |2-2-2-------------2-222-|2-2-2-------------------|
    . . .             . ...  . . .                   |
G2                                                   |
   |------------------------|------------------------|
   |------------------------|------------------------|
   |------2p0h2-4p2h4-------|------2p0h2-4p2h4-5p4h5-|
   |2-2-2-------------2-222-|2-2-2-------------------|
   |------------------------|------------------------|
   |------------------------|------------------------|
    . . .             . ...  . . .
G1   e e e e e e e e e e sse  e e e e e e e e e e e e
   |------------------------|------------------------|
   |------------------------|------------------------|
   |------------------------|------------------------|
   |------------------------|-------------------p-h--|
   |------7p5h7-9p7h9-------|------7p5h7-9p7h9-10910-|
   |0-0-0-------------0-000-|0-0-0-------------------|
    . . .             . ...  . . .                   |
G2  e e e e e e e e e e sse  e e e e e e e e e e e e |
   |------------------------|------------------------|
   |------------------------|------------------------|
   |------------------------|------------------------|
   |0-0-0-5p4h5-7p5h7-0-000-|0-0-0-5p4h5-7p5h7-9p7h9-|
   |------------------------|------------------------|
   |------------------------|------------------------|
    . . .             . ...  . . .
G1   e e e e e e e e e e e e  e sse e e e e e e e e e
   |------------------------|------------------------|
   |------------------------|------------------------|
   |------------------------|------------------------|
   |------------------------|------------------------|
   |------7p5---9p5---7p5h7-|------5p4---7p4---5p4h5-|
   |5-5-5-----5-----5-------|0-000-----0-----0-------|
    . . .     .     .        . ...     .     .       |
G2  e e e e e e e e e e sse  e sse e e e e e e e e e |
   |------------------------|------------------------|
   |------------------------|------------------------|
   |------5p4---7p4---5p4h5-|------4p2---5p2---4p2h4-|
   |5-5-5-----5-----5-------|0-000-----0-----0-------|
   |------------------------|------------------------|
   |------------------------|------------------------|
    . . .             . ...  . ...     .     .
G1&2 e sse e e e e sse e e e  e sse e e e e H       e
    |------------------------|------------------------|
    |------------------------|------------------------|
    |------------------------|------------------------|
    |------------------------|------------------------|
    |2-222-2-2-2-2-222-2-2-2-|2-222-2-2-2-2-----------|
    |2-222-2-2-2-2-222-2-2-2-|2-222-2-2-2-2-----------|
     . ... . . .   ... . . .    ... . . .   R       R
Chorus Pt 1    Repeat once (8 bars)
G1&2 e e e e e e e e e e e e  e e e e e e e e e q.
|12 |------------------------|------------------------|
|8  |------------------------|----------------5-7-----|
|   |----------------2-4-2---|------------7-9---------|
|   |------5-4-2-4-5-------5-|------9-7-5-------------|
|   |------------------------|------------------------|
|   |2-2-2-------------------|5-5-5-------------------|
                                                PH    |
G3   e e e W               e  e e e W               e |
    |------------------------|------------------------|
    |------------------------|------------------------|
    |------------------------|------------------------|
    |------5---------------T-|------9---------------T-|
    |------2---------------T-|------5---------------T-|
    |2-2-2-2---------------T-|5-5-5-5---------------T-|
     . . .                    . . .
G1&2 e e e e e e e e e e e e  e e e e e e e e e e e e
    |------------------------|------------------------|
    |------------------------|------------------------|
    |------------------------|------------------------|
    |----------------5-7-5---|------4-5-7-------5-4-2-|
    |------9-7-5-7-9-------9-|3-3-3-------2-2-2-------|
    |0-0-0-------------------|------------------------|
                                                      |
G3   e e e W               e  e e e e e e e e e e e e |
    |------------------------|------------------------|
    |------------------------|------------------------|
    |------------------------|------------------------|
    |------4---------------T-|5-----------5-----------|
    |------0---------------T-|3-3-3-3-3-3-2-2-2-2-2-2-|
    |0-0-0-0---------------T-|------------------------|
     . . .                      . . . . .   . . . . .
Chorus Pt 2    Repeat once (8 bars)
G1  e e e e e e e e e e e e  e e e e e e e e e q.
|12|------------------------|------------------------|
|8 |------------------------|----------------5-7-----|
|  |----------------2-4-2---|------------7-9---------|
|  |------5-4-2-4-5-------5-|------9-7-5-------------|
|  |------------------------|------------------------|
|  |2-2-2-------------------|5-5-5-------------------|
                                               PH    |
G2  e e e e e e e e e e e e                          |
   |------------------------|------------------------|
   |------------------------|----------------5-7-----|
   |------------------7-----|------7-5-4-5-7---------|
   |------9-7-5-7-9-10--10-9|5-5-5-------------------|
   |7-7-7-------------------|------------------------|
   |------------------------|------------------------|
                                               PH    |
G3   e e e W               e  e e e W              e |
   |------------------------|------------------------|
   |------------------------|------------------------|
   |------------------------|------------------------|
   |------5---------------T-|------9---------------T-|
   |------2---------------T-|------5---------------T-|
   |2-2-2-2---------------T-|5-5-5-5---------------T-|
    . . .                    . . .
G1  e e e e e e e e e e e e  e e e e e e e e e e e e
   |------------------------|------------------------|
   |------------------------|------------------------|
   |------------------------|------------------------|
   |----------------5-7-5---|------4-5-7-------5-4-2-|
   |------9-7-5-7-9-------9-|3-3-3-------2-2-2-------|
   |0-0-0-------------------|------------------------|
                                                     |
G2  e e e e e e e e e e e e  e e e e e e e e e e e e |
   |------------------------|------------------------|
   |------------------------|------------------------|
   |------------------------|------2-4-5-------4-2-0-|
   |----------------4-5-4---|------------------------|
   |------7-5-4-5-7-------7-|3-3-3-------2-2-2-------|
   |5-5-5-------------------|------------------------|
                                                     |
G3  e e e W               e  e e e e e e e e e e e e |
   |------------------------|------------------------|
   |------------------------|------------------------|
   |------------------------|------------------------|
   |------4---------------T-|5-----------5-----------|
   |------0---------------T-|3-3-3-3-3-3-2-2-2-2-2-2-|
   |0-0-0-0---------------T-|------------------------|
    . . .                      . . . . .   . . . . .
Bridge
              G1  e e e e e e e e e e e e  e e e e e e e e e e e e
             |12|------------------------|------------------------|
             |8 |------------------------|------------------------|
             |  |------------------------|------------------------|
             |  |5-----5-----5-----5-----|9-----9----10-----9-----|
             |  |------------------------|------------------------|
             |  |--2-2---2-2---2-2---2-2-|--5-5---5-5---5-5---5-5-|
                   . .   . .   . .   . .    . .   . .   . .   . . |
G3  all are eighth notes                                          |
   |-----------------------------|--------------------------------|
   |15------------15-------------|--------13--------------15------|
   |--11-12--11-12--11-12--11-12-|16-12-16--16-12-16-12-16--16-12-|
   |-------14------------14------|--------------------------------|
   |-----------------------------|--------------------------------|
   |-----------------------------|--------------------------------|

              G1  e e e e e e e e e e e e  e e e e e e e e e e e e
                |------------------------|------------------------|
                |------------------------|------------------------|
                |------------------------|------------------------|
                |4-----4-----7-----4-----|5----------5------------|
                |------------------------|2----------2------------|
                |--0-0---0-0---0-0---0-0-|--222-2-2-2---222-2-2-2-|
                   . .   . .   . .   . .    ... . . .   ... . . . |
G3  first bar: all eighth notes   e  e  e  e  e e e  e  e  q.     |
   |-----------------------------|--------------------------------|
   |-----------------------------|--------------------------------|
   |14-----17-----14-----17------|16-14-12-14-12--12--------------|
   |--12-16--12-16--12-16--12-16-|--------------16--16-14-16------|
   |-----------------------------|--------------------------------|
   |-----------------------------|--------------------------------|
              G1  e e e e e e e e e e e e  e e e e e e e e e e e e
                |------------------------|------------------------|
                |------------------------|------------------------|
                |------------------------|------------------------|
                |5-----5-----5-----5-----|9-----9----10-----9-----|
                |------------------------|------------------------|
                |--2-2---2-2---2-2---2-2-|--5-5---5-5---5-5---5-5-|
                   . .   . .   . .   . .    . .   . .   . .   . . |
G3  all are eighth notes                                          |
   |-----------------------------|--------------------------------|
   |15------------15-------------|--------13--------------15------|
   |--11-12--11-12--11-12--11-12-|16-12-16--16-12-16-12-16--16-12-|
   |-------14------------14------|--------------------------------|
   |-----------------------------|--------------------------------|
   |-----------------------------|--------------------------------|

              G1  e e e e e e e e e e e e  e e e e e e e e e e e e
                |------------------------|------------------------|
                |------------------------|------------------------|
                |------------------------|------------------------|
                |4-----4-----7-----4-----|5----------5------------|
                |------------------------|2----------2------------|
                |--0-0---0-0---0-0---0-0-|--222-2-2-2---222-2-2-2-|
                   . .   . .   . .   . .    ... . . .   ... . . . |
G3  All are eighth notes                                          |H
   |-----------------------------|--------------------------------|---|
   |-----------------------------|--------------------------------|---|
   |14-----17-----14-----17------|16-14-12-14-12--12--------------|---|
   |--12-16--12-16--12-16--12-16-|--------------16--16-14-16-14-12|14\|
   |-----------------------------|--------------------------------|---|
   |-----------------------------|--------------------------------|---|
                                                                   PH
***Last bar of the bridge is the first bar of verse two and is played at ***the same 
as G1 and G2 start the verse.
Verse 2    (same as verse 1 Pts 2&3)

Interlude Pt 1
G1&2 W                W                W                W
| 4 |----------------|----------------|----------------|----------------|
| 4 |----------------|----------------|----------------|----------------|
|   |----------------|----------------|----------------|----------------|
|   |----------------|----------------|----------------|----------------|
|   |2---------------|T---------------|T---------------|T---------------|
|   |2---------------|T---------------|T---------------|T---------------|
                                                                        |
G4   e e e e e e e e  e e e e e e e e  e e e e e e e e  e e e e e e e e |
    |----------------|----------------|----------------|----------------|
    |----------------|----------------|----------------|----------------|
    |--------2-------|--------5-------|--------0-------|--------2-------|
    |----5-----5---5-|----9-----9---9-|----4-----4---4-|----5-----5---5-|
    |--2---------2---|--5---------5---|--0---------0---|--2---------2---|
    |2-----2---------|5-----5---------|0-----0---------|2-----2---------|

G4   e e e e e e e e  e e e e e e e e  e e e e e e e e  e e e e e e e e
    |----------------|----------------|----------------|----------------|
    |----------------|----------------|----------------|----------------|
    |--------2-------|--------5-------|--------0-------|--------2-------|
    |----5-----5---5-|----9-----9---9-|----4-----4---4-|----5-----5---5-|
    |--2---------2---|--5---------5---|--0---------0---|--2---------2---|
    |2-----2---------|5-----5---------|0-----0---------|2-----2---------|
                                                                        |
G1                                                                      |
    |----------------|----------------|----------------|----------------|
    |----------------|----------------|----------------|----------------|
    |----------------|----------------|----------------|------------4~--|
    |----------------|----------------|----------------|----------------|
    |----------------|----------------|----------------|----------------|
    |----------------|----------------|----------------|----------------|
                                                                    PH  |
G2                                                                      |
    |----------------|----------------|----------------|----------------|
    |----------------|----------------|----------------|----------------|
    |----------------|----------------|----------------|----------------|
    |----------------|----------------|----------------|------------5~--|
    |----------------|----------------|----------------|----------------|
    |----------------|----------------|----------------|----------------|
                                                                    PH
Interlude Pt 2    Repeat once (8 bars)    Tempo: 180
G1&2 e e e e e e e e  e e e e e e e e  e e e e e e e e  e e e e e e e e
| 4 |----------------|----------------|----------------|----------------|
| 4 |----------------|----------------|----------------|----------------|
|   |--------------2-|----------------|--------------2-|4---------------|
|   |2---2-5-4-0-4---|5-0---0---------|2---2-5-4-0-4---|--5-2-5-2-------|
|   |--2-------------|----2---2-------|--2-------------|----------2---2-|
|   |----------------|----------5-0-5-|----------------|------------5---|
                                                                        |
G4   W                W                W                q   sssse e e e
    |----------------|----------------|----------------|----------------|
    |----------------|----------------|----------------|----------------|
    |----------------|----------------|----------------|----------------|
    |5---------------|9---------------|4---------------|5-------5-5-5-5-|
    |2---------------|5---------------|0---------------|2---22222-2-2-2-|
    |2---------------|5---------------|0---------------|2---2222--------|
                                                            ..... . . .
Solo Pt 1
***Same riffs played ny G1, G2, and G4 for first eight bars but G3 plays:
G3   e e e e e e e e  e e e e e e e e  e e e e e e e e  e e e e q
    |----------------|----------------|----------------|----------------|
    |----------------|----------------|----------------|----------------|
    |--------------5-|7-5---5---------|----------------|----------------|
    |5---5-7-9-7-9---|----9---9-7-9-7-|5-7-5---5-------|----------------|
    |--7-------------|----------------|------9---9-7-9-|7-5---5-7~------|
    |----------------|----------------|----------------|----9-----------|
     . . . . . . . .  . . . . . . . .  . . . . . . . .  . . . . PH
     All are eighth-notes
    |----------------|----------------|----------------|7-8----10-12----|
    |----------------|----------------|--------7-8-----|----8-5-----10--|
    |--------------5-|7-5---5-------5-|7-9---------7-5-|--------------12|
    |5---5-7-9-7-9---|----9---9-7-9---|----7-5---------|----------------|
    |--7-------------|----------------|----------------|----------------|
    |----------------|----------------|----------------|----------------|
     . . . . . . . .  . . . . . . . .                                   |
    G5    All are eighth-notes                                              |
    |----------------|---------------|-----------------|10-----14-15----|
    |----------------|---------------|---------10-12---|-12--------13---|
    |----------------|---------------|-------------11-9|---12--------12-|
    |----------------|---------------|11-12------------|------12--------|
    |----------------|---------------|----10-9---------|----------------|
    |----------------|---------------|-----------------|----------------|
***That's right, five guitars are being played at once for 2 bars
Solo Pt 2
G1&2 All are eighth-notes   Played 4 times while G3 is soloing
    |----------------|----------------|----------------|----------------|
    |----------------|----------------|----------------|----------------|
    |--------2-------|--------5-------|--------0-------|--------2-------|
    |----5-----5---5-|----9-----9---9-|----4-----4---4-|----5-----5---5-|
    |--2---------2---|--5---------5---|--0---------0---|--2---------2---|
    |2-----2---------|5-----5---------|0-----0---------|2-----2---------|
                                                          |-3-|
G3   H               q.          e    q       e   e   e   s s s e   e
    |--full------------------------full-------------------------------|
    |15b-------------T-----------15br|T-------13--12--13--121312------|
    |--------------------------------|--------------------------14--12|
    |--------------------------------|--------------------------------|
    |--------------------------------|--------------------------------|
    |--------------------------------|--------------------------------|

     q       e   e   e   e   e   e     H             q.           e
    |--------------------------------|----------------------------15b---|
    |--3/4---------------------------|----------------------------------|full
    |14br----12------12--------------|----------------------------------|
    |------------14------14--12-h14--|(14)~~~~~~~~~~~T~~~~~~~~~~~~------|
    |--------------------------------|----------------------------------|
    |--------------------------------|----------------------------------|
                               |-3-|
     q     q.      e   e   e   s s s  q       e   q       e   e   e
    |T-----15------14--12--14--121412|----------------------------------|
    |----------------------------h-p-|15------13--12------13--12--13----|
    |--------------------------------|----------------------------------|
    |--------------------------------|----------------------------------|
    |--------------------------------|----------------------------------|
    |--------------------------------|----------------------------------|
     |--3--|  |--3--|  |--3--|  |--3--|  |--3--|  |--3------------------|
     e  e  e  e  e  e  e  e  e  e  e  e  e  e  e  e  e  e H
    |----------------------------------|---------------------------------|
    |15p13p12----------13p12p10--------|---------10h12h13-12~~~~~~~~~~~~~|
    |---------14p12p11----------12p11p9|-9h11h12-------------------------|
    |----------------------------------|---------------------------------|
    |----------------------------------|---------------------------------|
    |----------------------------------|---------------------------------|

    s  s  s  s  s  s  s  s  s  s  s  s  s  s  s  s
    |12p10----10-12p10-12p10----10-12p10-12p10----10-|
    |------12----------------12----------------12----|
    |------------------------------------------------|
    |------------------------------------------------|
    |------------------------------------------------|
    |------------------------------------------------|


     s  s  s  s  s  s  s  s  s  s  s  s  s  s  s  s
    |15p10----10-15p10-15p10----10-15p10-15p10----10-|
    |------12----------------12----------------12----|
    |------------------------------------------------|
    |------------------------------------------------|
    |------------------------------------------------|
    |------------------------------------------------|

     s  s  s  s  s  s  s  s  s  s  s  s  s  s  s  s
    |17p1h----15-19p15----15-20p19----19-22p19----19-|
    |------17----------17----------20----------20----|
    |------------------------------------------------|
    |------------------------------------------------|
    |------------------------------------------------|
    |------------------------------------------------|

     q     s      s   s   s   s   s   s   s   s   q
    |22---(24)---(24)(24)(24)(24)(24)(24)(24)(24)r22br-|
    |--full----------------------20--------------------|full
    |--------------------------------------------------|
    |--------------------------------------------------|
    |--------------------------------------------------|
    |--------------------------------------------------|

G3   q       e   e   e   e   e   e    e   e   e   q       e   q
    |T-------20--19------19----------|--------------------------------|
    |----------------22------22--20--|22--20--19--20------19--20------|
    |--------------------------------|--------------------------------|
    |--------------------------------|--------------------------------|
    |--------------------------------|--------------------------------|
    |--------------------------------|--------------------------------|
                                                                      |
G5   q       e   e   e   e   e   e    e   e   e   q       e   q       |
    |--------17--15------15----------|--------------------------------|
    |----------------19------19--17--|19--17--15--17------15--17------|
    |--------------------------------|--------------------------------|
    |--------------------------------|--------------------------------|
    |--------------------------------|--------------------------------|
    |--------------------------------|--------------------------------|
     R

G3   e   e   e   e   e   e   e   e    e   e   e   H
    |22------19------19------15------|15------------full--------------|
    |----20--------------17----------|----12------15b-----------------|
    |------------21--------------16--|--------12----------------------|
    |--------------------------------|--------------------------------|
    |--------------------------------|--------------------------------|
    |--------------------------------|--------------------------------|
                                                                      |
G5   e   e   e   e   e   e   e   e    e   e   e   e   H               |
    |19------15------15------12------|--------------------------------|
    |----17--------------12----------|17--12------------half----------|
    |------------16--------------12--|--------12------15b-------------|
    |--------------------------------|------------14------------------|
    |--------------------------------|--------------------------------|
    |--------------------------------|--------------------------------|

Breakdown
G3   H.                      e   e    H               H
    |--------------------------full--|--------------------------------|
    |T-----------------------15b-15~~|T~~~~~~~~~~~~~~(15)\------------|
    |--------------------------------|--------------------------------|
    |--------------------------------|--------------------------------|
    |--------------------------------|--------------------------------|
    |--------------------------------|--------------------------------|
                                                                      |
G5   H.                      e   e    H               H               |
    |--------------------------------|--------------------------------|
    |--------------------------half--|--------------------------------|
    |------------------------15b-14~~|T~~~~~~~~~~~~~~(14)\------------|
    |--------------------------------|--------------------------------|
    |--------------------------------|--------------------------------|
    |--------------------------------|--------------------------------|
                                                                      |
G1&2 e   s s q       e   e   e   e    e   s s q       e   e   e   e   |
    |--------------------------------|--------------------------------|
    |--------------------------------|--------------------------------|
    |--------------------------------|--------------------------------|
    |----------------5---5-----------|----------------4---4-----------|
    |2---2-2-2-------3---3---2-------|0---0-0-0-------5---5---3---2---|
    |2---2-2-2-------------------5---|0---0-0-0-----------------------|
     .   . .                          .   . .
***Play this riff 3 more times (4x total, 8 bars)
G1&2 e   s s q       e   e   e   e    e   s s q       e   e   e   e
    |--------------------------------|--------------------------------|
    |--------------------------------|--------------------------------|
    |--------------------------------|--------------------------------|
    |----------------5---5-----------|----------------4---4-----------|
    |2---2-2-2-------3---3---2-------|0---0-0-0-------5---5---3---2---|
    |2---2-2-2-------------------5---|0---0-0-0-----------------------|
     .   . .                          .   . .
***Accelerate from 180bpm to 210bpm in first 7 beats (3.75 bars)
G1&2
    |----------------|----------------|
    |----------------|----------------|
    |----------------|----------------|
    |----------------|----------------|
    |2---2---2---2---|2---2---2---2---|
    |2---2---2---2---|2---2---2---2---|
     .   .   .   .    .   .   .   .
Now play the Chorus again

Now play the bridge as the outro Pt 1 for 8 bars

Outro Pt 2
G1&2 W.                       W.                      q   W           q
|12|------------------------|------------------------|-----------------------|
|8 |------------------------|------------------------|-----------------------|
   |------------------------|------------------------|-----------------------|
|  |------------------------|------------------------|-----------------------|
|  |2-----------------------|T-----------------------|2----------------------|
|  |2-----------------------|T-----------------------|2----------------------|
                                                          R           R
G3   q   q.    H             W.                       q   W           q
   |------------------------|------------------------|---------------------|
   |------------------------|------------------------|---------------------|
   |------------------------|------------------------|---------------------|
   |14~(14)\----------------|------------------------|---------------------|
   |------------------------|------------------------|2--------------------|
   |------------------------|------------------------|2--------------------|
    PH                       R                            R           R

Duration Legend
---------------
W - whole
H - half
Q - quarter
E - 8th
S - 16th
T - 32nd
X - 64th
. - note dotted
|-n-|  - n-tuplets


Tablature Legend
----------------
L - tied note
x - dead note
g - grace note
(n) - ghost note
> - accentuded note
NH - natural harmonic
AH - artificial harmonic
TH - tapped harmonic
SH - semi harmonic
PH - pitch harmonic
h - hammer on
p - pull off
b - bend
br - bendRelease
pb - preBend
pbr - preBendRelease
brb - bendReleaseBend
\n/ - tremolo bar dip
\n - tremolo bar dive
-/n - tremolo bar Release up
/n\ - tremolo bar inverted dip
/n - tremolo bar return
-\n - tremolo bar Release down
S - shift slide
s - legato slide
/ -  slide into from below or out of upwards
\ -  slide into from above or out of downwards
~ - vibrato
W - wide vibrato
tr - trill
TP - tremolo picking
T - tapping
S - slap
P - pop
< - fade in
^ - brush up
-------------------|-------------------|-------------------|----------------
Tap to rate this tab
# A B C D E F G H I J K L M N O P Q R S T U V W X Y Z