Song name
# A B C D E F G H I J K L M N O P Q R S T U V W X Y Z

Misc Unsigned Bands - Kelsey - A Life Lesson tab

----------------------------------------------------------------------------
A Life Lesson - Kelsey
----------------------------------------------------------------------------

Tabbed by: rockobsesse
Email: kelseyluo@hotmail.com

INTRO:

e|0-0-0-0-3-2-0-0-0-0-3-2-0-0-3-2---------3-2---------3-2-----3-2|
B|--------------------------------3-3-3-3-----3-3-3-3-----3-3----|
G|---------------------------------------------------------------|
D|---------------------------------------------------------------|
A|---------------------------------------------------------------|
E|---------------------------------------------------------------|

e|--------5-7---------5-7-8-7-5-7------5-8-7-5-------------------|
B|---------------------------------4-7---------8-7-5-4-----4-----|
G|5-5-5-5-----5-5-5-5------------4---------------------4---------|
D|---------------------------------------------------------------|
A|---------------------------------------------------------------|
E|---------------------------------------------------------------|

VERSE 1:

E                       B
You always do this, you hurt me
       C                          E
and it works, cuz i'm weaker than you
                   B
How long, must this last?
                 C                         D
Neverending this problem, drives me to the end of myself

CHORUS:

G                   D
This is, not what i wanted
       E                         C
Your a problem, that will not go away
G                              D                      E
Hate me or love me, I'll never listen to anything you say
                    C
Cuz all that you've made me, i'm stronger now

VERSE 2:

E                      B
I hope you change, but years go by
    C                       E
And your still, exactly the same
E                               B
Hate is much too light a word i feel, for you
     C                                 D
Your malicious and a violent mess, but you won't break me down

CHORUS:

G                   D
This is, not what i wanted
       E                         C
Your a problem, that will not go away
G                              D                      E
Hate me or love me, I'll never listen to anything you say
                    C
Cuz all that you've made me, i'm stronger now

BRIDGE:

D                               E
This is not the first time, I'm at my wits end
G                           Am
I'm furious and distraught, let me breathe out loud
     D                             E
Some people just don't deserve a second chance at life
   G                         D
So wrap your head around, everything i said

CHORUS:

G                   D
This is, not what i wanted
       E                         C
Your a problem, that will not go away
G                              D                      E
Hate me or love me, I'll never listen to anything you say
                    C
Cuz all that you've made me, i'm stronger now

G                   D
I'm gonna change my life, with everything you say
E                   C
And i'm not so sure this pain will go away
G                   D
Thanks for teaching me, all i have to know
E                  C
What i learnt from you, i will never show

OUTRO:

e|0-0-0-0-3-2-0-0-0-0-3-2-0-0-3-2---------3-2---------3-2-----3-2|
B|--------------------------------3-3-3-3-----3-3-3-3-----3-3----|
G|---------------------------------------------------------------|
D|---------------------------------------------------------------|
A|---------------------------------------------------------------|
E|---------------------------------------------------------------|

e|--------5-7---------5-7-8-7-5-7------5-8-7-5----------------0--|
B|---------------------------------4-7---------8-7-5-4-----4--0--|
G|5-5-5-5-----5-5-5-5------------4---------------------4------0--|
D|------------------------------------------------------------3--|
A|------------------------------------------------------------3--|
E|------------------------------------------------------------0--|
Tap to rate this tab
 
# A B C D E F G H I J K L M N O P Q R S T U V W X Y Z