Song name
# A B C D E F G H I J K L M N O P Q R S T U V W X Y Z

Misc Unsigned Bands - Kelsey - I Dont Want This tab

-------------------------------------------------------------------------------
			     I Don't want This - Kelsey
-------------------------------------------------------------------------------

Tabbed by: rockobsesse	
Email: kelseyluo@hotmail.com

VERSE 1:
               D-            A+
There was this young girl, i knew
               Bb+                           C+
She wanted the whole world, to stand in her shoes
               D-      A+                    Bb+      C+
Why can't they feel my pain? as she screamed into the air

CHORUS:

        Bb+           C+
I don't want this, at all
                   D-                A+
I just wanna do my own thing, that's all
                    Bb+                      C+
I've got nothing to prove, and everything to lose                
                 D-    A+ 
so just leave me alone
              D-    A+
just leave me alone

VERSE 2:

           D-              A+
As she got older, she grew wiser
        Bb+                       C+
but she never broke free from her thoughts
                     D-                       A+
They tell her it's a benefit, and that she needs it
          Bb+                C+
but their dreams are not her own

CHORUS:

        Bb+           C+
I don't want this, at all
                   D-                A+
I just wanna do my own thing, that's all
                    Bb+                      C+
I've got nothing to prove, and everything to lose
                 D-    A+                
so just leave me alone
              D-    A+
just leave me alone

BRIDGE:

e|----6-6-----6-6-8-6-5-3-1-0-1--0-1-3--8----13-12-10-8-10-|
B|6-6-----6-6----------------------------------------------|
G|---------------------------------------------------------|
D|---------------------------------------------------------|
A|---------------------------------------------------------|
E|---------------------------------------------------------|

e|------------6--5-3-1-0-1----------------------5-3-1-0----|
B|--------5-5---------------2-3-5------5-6-5------------3--|
G|0-0-3-3-------------------------3---3--------------------|
D|----------------------------------5----------------------|
A|---------------------------------------------------------|
E|---------------------------------------------------------|


CHORUS:

        Bb+           C+
cuz I don't want this, at all
                   D-                A+
I just wanna do my own thing, that's all
                    Bb+                      C+
I've got nothing to prove, and everything to lose
                 D-    A+                
so just leave me alone
A+
leave me alone

OUTRO:

e|--1-3-1---1-3-1--131---1-3-1---1-3-1--131----------------|
B|3-------3-------2----3-------3-------2----3--------------|
G|---------------------------------------------------------|
D|---------------------------------------------------------|
A|---------------------------------------------------------|
E|---------------------------------------------------------|
Tap to rate this tab
 
# A B C D E F G H I J K L M N O P Q R S T U V W X Y Z