Song name
# A B C D E F G H I J K L M N O P Q R S T U V W X Y Z

Misc Unsigned Bands - Han Ye Seul - Geu Daen Dal Ra Yo chords

Highlighted       Show chord diagrams
Title: Geu Daen Dal Ra Yo (You Are Different)
Artist: Han Ye Seul
Tuning: Standard
mzik_man@yahoo.com


Chords:
   
    Cm7b5  Bm/E  Bm/F#  F#/C#  Bbsus4  Bb/D  BbM9 C#7sus4  G#+2
e|----3-----2-----2--------------1-------------1-----4----------|
B|----4-----3-----3-------2------4-------3-----1-----4-------4--|
G|----3-----4-----4-------3------3-------3-----1-----4-------3--|
D|----4-----4-----4-------4------1-------3-----0-----4-------3--|
A|----3-------------------4------1-------5-----1-----4----------|
E|----------0-----2------------------------------------------4--|

   Ebm/C#  Aaug  F#+2  Adim  Fm7b5  C#/Eb  Dm7b5 G#m7/B
e|---2-------1-----------2-------------------5----------|
B|---4-------2-----2-----1-----1------6------6-----4----|
G|---3-------2-----1-----2-----1------6------5-----4----|
D|-----------3-----1-----1-----1------6------6-----4----|
A|---4-------0-----------0-----2------6------5-----6----|
E|-----------------2-----------1-------------------7----|


Intro: G#m7-Bbm7-B-Cm7b5-E7-Bm/E-Bm/F#-Bm/E-C#7


G#m7        C#7sus4   Ebm7
Bigyohal su omnun sarangi
G#m7        C#9         Bbsus4
Bigyohal su omun sollem
            Bb7             Ebm
Baro kudaen nayegen guraeyo
                    Bb/D  Ebm/C#
Mworago marharyo haedo-oh
                  Cm7b5              B
Parabodaga gonnen pyong-bomhan insa
               Bbm7         Aaug-G#m7
Ichul su obshi nal baggwige han 
                    G#m7
Ajigun namaye bimil
  Bbm7    BM7  C#7 
Kudae nan iron saram


F#+2
Kudaenun nomu tallayo
   B
Naega bon onu nunbit boda
    Fm7b5       Bb7-Bb/D
Nal kidaehagehae
         Ebm7       C#m7     Cm7b5  BM7
Onjen-ga nal nomuna kam-tong-shikil-kot katun
        Bbm7        Ebm7-Adim
Gobaegi issul-kot kata
G#m7         C#9    B-C#
Onjebuton-ga kidaryo  

                   
F#                         
Kudaenun nomu ballayo 
B
Nal bbachyodulke mandun shigan
  Fm7b5    Bb7-Bb/D   Ebm7    F#/C#-Cm7b5   
Kudaen nal chogumhage mandurotjyo
BM7                Bbm7     Ebm7    
Han gorumman do naege tagawajwo
  G#m7     G#m7/C#   F#/E-B-G#m7-C#7/E-C# 
Kudaen bimiril su optkiye


G#m7/B      C#7sus4    Ebm7
Bigyohal su omnun sulpumi
G#m7        C#9         Bbsus4
Bigyohal su omnun nunmul
            Bb7                Ebm
Kudae narul ttonaganun sangsang
                    Bb/D  Ebm/C#
Marobshi ttonaganun nol
                      Cm7b5          BM7
Chaburyo chabu-oryogo aerul ssobwado
             Bbm7         
Moroman jinun kudae
   Ebm7-Adim  G#m7                  G#m7  
Kkumuri      kkae-onado hime kyo-un
  Bbm7 BM7     C#7 
Kudaeranun han saram


F#+2       
Kudaenun nomu tallayo
   B
Naega bon onu nunbit boda
    Fm7b5    Bb7-Bb/D
Nal kidaehagehae
         Ebm7       C#m7     Cm7b5  BM7
Onjen-ga nal nomuna kam-tong-shikil-kot katun
        Bbm7        Ebm7-Adim
Gobaegi issul-kot kata
G#m7         G#m7/B-C#-C#/Eb-Eb7
Onjebuton-ga kidaryo


G#
Kudaenun nomu ballayo
     C#
Nal bbachyodulke mandun shigan
  Gm7      C7    C7/E Cm/F     Ebm7-Dm7b5
Kudaen nal chogumhage mandurotjyo
C#m7               Cm7      Fm7      
Han gorumman do naege tagawajwo
  Bbm7     E/F#        Fm7-BbM9   
Kudaen bimiril su optkiye
F#          C#    G#+2
Kudaen tallayo naegen

Tap to rate this tab
# A B C D E F G H I J K L M N O P Q R S T U V W X Y Z