Song name
# A B C D E F G H I J K L M N O P Q R S T U V W X Y Z

Misc Unsigned Bands - Nailpoint - American Nightmare tab

NailPoint-American Nightmare
From the 2008 Album FALLING TO PIECES
Tabbed by Fausch
Tuning: Drop C (CGCFAd)

Intro
d----------------------------------------------|
A----------------------------------------------|
F----------------------------------------------|
C-0-0--0-0--0-0--0-0------6---0-0--0-0--0--6---|
G-0-0--0-0--0-0--0-0------5---0-0--0-0--0--5---|
C-0-0--0-0--0-0--0-0--0-0-5---0-0--0-0--0--5---|

d---------------------------|
A---------------------------|
F---------------------------|
C-0-0--0-0--0-0--0-0------6-|
G-0-0--0-0--0-0--0-0------5-|
C-0-0--0-0--0-0--0-0--0-0-5-| x4

Verse
d----------------------------------------------|
A----------------------------------------------|
F----------------------------------------------|
C----------------------------------------------|
G-5-3--------5*3------5-3------5-3-------------|
C------6540------6540-----6540-----6540--------|

d-----------------|
A-----------------|
F-----------------|
C-35555xxx5556666-
G-35555xxx5556666-
C-35555xxx5556666-x2

d----------------------------------------------|
A----------------------------------------------|
F----------------------------------------------|
C----------------------------------------------|
G-5-3--------5-3------5-3------5-3-------------|
C------6540------6540-----6540-----6540--------|

d-----------------|
A-----------------|
F-----------------|
C-35555xxx5556666-
G-35555xxx5556666-
C-35555xxx5556666-x2

d----------------------------------------------|
A----------------------------------------------|
F----------------------------------------------|
C----------------------------------------------|
G-5-3--------5-3------5-3------5-3-------------|
C------6540------6540-----6540-----6540--------|

Chorus

d------------------|
A------------------|
F------------------|
C----0-0---3335555-|
G----0-0-x-3335555-|
C-6540-0-x-3335555-| x3

d--------------------|
A--------------------|
F--------------------|
C--------------------|
G--------------------|
C-6540-0-6540-0-654--|

Interlude

d----------------------------------------------|
A----------------------------------10b----10b--|
F----------------------------------10b----10b--|
C-------------------------------------12-------|
G-5-3--------5-3------5-3----------------------|
C------6540------6540-----6540-----------------|

Verse

Chorus

Break Down/solo

d----------------------------------------------|
A----------------------------------------------|
F----------------------------------------------|
C----------------------------------------------|
G----------------------34----------------------|
C-0-6--0-6--0-6--0-6-56------------------------| x4

d----------------------------------------------|
A----------------------------------------------|
F10-12br--10-12br--10-12br--10-12br--12-10-----|
C------------------------------------------12b-|
G----------------------------------------------|
C----------------------------------------------|

d----------------------------------------------|
A------------------------------------------12b-|
F10-12br--10-12br--10-12br--10-12br--10-12-----|
C----------------------------------------------|
G----------------------------------------------|
C----------------------------------------------|

d----------------------------------------------|
A----------------------------------------------|
F10-12br--10-12br--10-12br--10-12br--12-10-----|
C------------------------------------------12b-|
G----------------------------------------------|
C----------------------------------------------|

d----------------------------------------------|
A-----------------15b-15-15-15-15-15r----------|
F10-12br--10-12br------------------------------|
C----------------------------------------------|
G----------------------------------------------|
C----------------------------------------------|

Chorus x2

Outro

d-2-2--2-2--2-2--2-2--2-2-4--|
A-3-3--3-3--3-3--3-3--3-3-3--|
F-2-2--2-2--2-2--2-2--2-2-2--|
C-0-0--0-0--0-0--0-0--0-0-0--|
G-0-0--0-0--0-0--0-0--0-0-0--|
C-0-0--0-0--0-0--0-0--0-0-0--| x3


d-2-2--2-2--2-2--2-4~-|
A-3-3--3-3--3-3--3-3~-|
F-2-2--2-2--2-2--2-2~-|
C-0-0--0-0--0-0--0-0~-|
G-0-0--0-0--0-0--0-0~-|
C-0-0--0-0--0-0--0-0~-|
Tap to rate this tab
# A B C D E F G H I J K L M N O P Q R S T U V W X Y Z