Song name
# A B C D E F G H I J K L M N O P Q R S T U V W X Y Z

Misc Unsigned Bands - Streetlight Cameo - Vanity tab

Tune bottom string down a full step(drop D)
Listen to the song for exact timing

Verse
E---------------------------------e 
B-------------5-5-----------55555-b
G-2h4p20------4-4-x-4-2-----44444-g  Repeat
D-------20--2-2-2-x-2-0-0-2-22222-d
A-----------2-2-2-x-0-0-0-2-22222-a
D-----------2-2-2-------0-2-22222-d

Chorus
E-x-x-000000-----000000-------e
B-x-x-000000-----000000-------b
G-x-x-444444-4-6-777777-66666-g  Repeat
D-x-x-222222-2-4-555555-44444-d   
A-x-x-222222-0-0-555555-00000-a
D-x-x-222222-0-0-555555-00000-d

Interlude
E-------------------------e
B-------------------------b
G-------------------------g
D-2h4p20------------------d
A-------20--2--0----------a
D----------2-s5-002-22222-d

"Vanity" can be heard at: myspace.com/streetlightcameo
Tap to rate this tab
# A B C D E F G H I J K L M N O P Q R S T U V W X Y Z