Song name
# A B C D E F G H I J K L M N O P Q R S T U V W X Y Z

Misc Unsigned Bands - Streetlight Cameo - No Meaning tab

Standard tuning

Riff 1
e-----------------------------------------0----------------------------e
B----------0-------------0-----------------0-------------33--33-/-55-0-b
G------5-----5-------5-----5---------5-------5-----------00--55-/-77-0-g
D----7---7-----7---7---7-----7-----7---7-------7---------00--00-/-00-0-d
A-0--------------0-------------0-0---------------0---------------------a
E----------------------------------------------------------------------e

Repeated with variations

Riff 2
e-0----12*----------0----12*--------------------e
B-0-----12*12*------0-----12*12*--33--33--555-0-b
G-5-----------------5-------------00--55--777-0-g
D-7-----------------7-------------00--00--000-0-d
A-0-----------------0---------------------------a
E-0-----------------0---------------------------e

*=Harmonic

"No Meaning" can be heard at: myspace.com/streetlightcameo
Tap to rate this tab
 
# A B C D E F G H I J K L M N O P Q R S T U V W X Y Z