Song name
# A B C D E F G H I J K L M N O P Q R S T U V W X Y Z

Misc Unsigned Bands - 577 Feet Above Sealevel - Bf 4-ever tab

Capo on 5th

[1]
e|----------------------------------------------------------------------------|
B|----1----1----1-----1---1-----1---1----1---1----1---0----0---1----1---1----1|
G|-------2---------2---------2---------2--------0--------0--------2--------2--|
D|-----2---------2---------2---------2--------2--------0--------2--------2----|
A|--0---------0---------0---------0--------3--------2--------0--------0-------|
E|----------------------------------------------------------------------------|

[2]
e|--------------------------------------------------------------------------|
B|----0----0---0----0---1----1---1----1-------------------------------------|
G|-------0--------0--------2--------2---------------------------------------|
D|-----2--------2--------2--------2-----------------------------------------|
A|--2--------2--------0--------0--------------------------------------------|
E|--------------------------------------------------------------------------|

[3]
e|--------------------------------------------------------------------------|
B|----1----1---0----0---1----1---1----1-------------------------------------|
G|-------2--------0--------2--------2---------------------------------------|
D|-----2--------0--------2--------2-----------------------------------------|
A|--3--------2--------0--------0--------------------------------------------|
E|--------------------------------------------------------------------------|

[4]
e|--------------------------------------------------------------------------|
B|----1----1---1----1---0----0---0----0---1----0---0----0---1----1---1----1-|
G|-------2--------2--------0--------0--------0--------0--------2--------2---|
D|-----3--------3--------2--------2--------2--------0--------2--------2-----|
A|--3--------3--------2--------2--------3--------2--------0--------0--------|
E|--------------------------------------------------------------------------|


Played like this:
Intro:
[1] X 2

Verse:
[2] 
[2]
[3]
[2]
[3]
X 2
Chorus:
[4]
[4]
[3]

Tap to rate this tab
# A B C D E F G H I J K L M N O P Q R S T U V W X Y Z