Song name
# A B C D E F G H I J K L M N O P Q R S T U V W X Y Z

Misc Unsigned Bands - Alan Marchese - The Unveiling tab

This is a song that i wrote not to long ago when i got bored one day.
Everything is in order top to bottom, i hope you enjoy. If you have
any questions you can contact me at alanmarchese94@hotmail.com. 




e|----------------------------------------------------|
b|----------------------------------------------------|
g|-------9-------9-------7-------7-------7\9~-----7\9~|
D|-----9---9---9---9---9---9---9---9---9--------9-----|
A|---7-------7-------7-------7-------7--------7-------|
E|----------------------------------------------------|


e|------------------------------------------------------|
b|------------------------------------------------------|
g|-------9-------9-------7-------7-------7\9~-9757577\9-|
D|-----9---9---9---9---9---9---9---9---9----------------|
A|---7-------7-------7-------7-------7------------------|
E|------------------------------------------------------|


e|--------------------------------------------|
b|--------------------------------------------|
g|-------9-------9-------7-------7-------7\9~-|
D|-----9---9---9---9---9---9---9---9---9------|
A|---7-------7-------7-------7-------7--------|
E|--------------------------------------------|


e|---------7--------7--------5--------5-------|
b|---------8--------7--------6--------5-------|
g|-------9--------7--------7--------5---------|
D|-----9--------9--------7--------7-----------|
A|---7--------7--------5--------5-------------|
E|--------------------------------------------|


e|--------------------------------------------|
b|--------------------------------------------|
g|-------9-------9-------7-------7-------7\9~-|
D|-----9---9---9---9---9---9---9---9---9------|
A|---7-------7-------7-------7-------7--------|
E|--------------------------------------------|


e|---------------------------------------------|
b|---------------------------------------------|
g|-------9-7~------7-5~------------------------|
D|-----9---------9-----------------------------|
A|---7---------7-------------------------------|
E|---------8~--------5~------------------------|


e|--------------------------------------------|
b|--------------------------------------------|
g|-------9---9-7~-------7---7-5~-5-7-7/9------|
D|-----9---9-9-7~-----9---9-7-5~-5-7-7/9------|
A|---7-------7-5~---7-------5-3~-3-5-5/7------|
E|--------------------------------------------|


e|--------------------------------------------|
b|---1------1------1--------------------------|
g|----2---2--2---0--2---20~-------------------|
D|-----2-2----2-2----2-2----------------------|
A|------3------3------3-----------------------|
E|--------------------------------------------|


e|--------------------------------------------|
b|---1------1------1--------------------------|
g|----2---2--2---0--2---202~------------------|
D|-----2-2----2-2----2-2----------------------|
A|------3------3------3-----------------------|
E|--------------------------------------------|


e|--------------------------------------------|
b|---1--------1--------1----------------------|
g|------------------2----------0-2-0~---------|
D|---------2-----------------2----------------|
A|---0-2-3----0-2-3----0-2-3------------------|
E|--------------------------------------------|



e|--------------------------------------------|
b|---1--------1--------1----------------------|
g|------------------2----------0202~----------|
D|---------2-----------------2----------------|
A|---0-2-3----0-2-3----0-2-3------------------|
E|--------------------------------------------|



e|--------------------------------------------|
b|---1--------1--------1----------------------|
g|------------------2----------0-2-0~---------|
D|---------2-----------------2----------------|
A|---0-2-3----0-2-3----0-2-3------------------|
E|--------------------------------------------|


e|--0--0-0--0--0-0--0-0---0--0-0--0--0-0--0-0--------|
b|--1--1-1--1--1-1--1-1---1--1-1--1--1-1--1-1--------|
g|--2--2-2--2--2-2--2-2---2--2-2--2--2-2--2-2--------|
D|--3--3----3--3----3-3---3--3----3--3----3-3--------|
A|--3--3----3--3----3-3---3--3----3--3----3-3--------|
E|---------------------------------------------------|


e|--0--0-0--0--0-0--0-0---0--0-0--0--0-0--0-0--------|
b|--1--1-1--1--1-1--1-1---1--1-1--1--1-1--1-1--------|
g|--3--3-3--3--3-3--3-3---3--3-3--3--3-3--3-3--------|
D|--2--2----2--2----2-2---2--2----2--2----2-2--------|
A|--3--3----3--3----3-3---3--3----3--3----3-3--------|
E|---------------------------------------------------|


e|--0--0-0--0--0-0--0-0---0--0-0--0--0-0--0-0~-------|
b|--1--1-1--1--1-1--1-1---1--1-1--1--1-1--1-1~-------|
g|--2--2-2--2--2-2--2-2---2--2-2--2--2-2--2-2~-------|
D|--2--2----2--2----2-2---2--2----2--2----2-2~-------|
A|--0--0----0--0----0-0---0--0----0--0----0-0~-------|
E|---------------------------------------------------|

e|-----0-----0-----0-----0-----0~~-------------------|
b|----1-1---1-1---1-1---1-1----1~~-------------------|
g|---2---2-2---2-2---2-2---2~--2~~-------------------|
D|--2-----3-----4-----3--------2~~-------------------|
A|-----------------------------0~~-------------------|
E|---------------------------------------------------|


Tap to rate this tab
 
# A B C D E F G H I J K L M N O P Q R S T U V W X Y Z