Song name
# A B C D E F G H I J K L M N O P Q R S T U V W X Y Z

Misc Unsigned Bands - Aaron Trinkner - For All We Know tab

“For All We Know” by Aaron Trinkner
Tabbed By Aaron Trinkner

Intro
Guitar 1(Clean)
E|----------------------------------------------------------------|
B|------8----------10---12-12-12-12-7-7-7-8-8-8-8-5-5-5-----------|
G|4-4h5----7-7h9p7------------------------------------------------|
D|----------------------------------------------------------------|
A|----------------------------------------------------------------|
D|----------------------------------------------------------------|

Guitar 2(Distortion)
E|----------------------------------------------------------------|
B|----------------------------------------------------------------|
G|----------------------------------------------------------------|
D|9-9-9-9-9-9-9-9-9-9-9-9-9-9-9-9-9-9-9-9-9-9-9-------------------|
A|----------------------------------------------------------------|
D|----------------------------------------------------------------|
  . . . . . . . . . . . . . . . . . .


Intro (distortion)
Guitar 1
E|----------------------------------------------------------------|
B|------8----------10---12-12-12-12-7-7-7-8-8-8-8-5-5-5-----------|
G|4-4h5----7-7h9p7------------------------------------------------|
D|----------------------------------------------------------------|
A|----------------------------------------------------------------|
D|----------------------------------------------------------------|

Guitar 2(Distortion)
E|--------------------------------------------------------------------------|
B|--------------------------------------------------------------------------|
G|--------------------------------------------------------------------------|
D|9-9-9-9-9-9-7-7-7-7-7-7-10-10-10-10-12-12-12-12-14-14-14-14-16-16-16------|
A|--------------------------------------------------------------------------|
D|--------------------------------------------------------------------------|


Riff 1

E|-----------------------------------------------------------------|
B|-----------------------------------------------------------------|
G|-----8-----------8-----------8-----------------------------------|
D|8-0--5-6-3--8-0--5-6-9--8-0--5-6-3-333-333-3h5-------------------|
A|8-0--6-6-3--8-0--6-6-9--8-0--6-6-3-333-333-3h5-------------------|
D|8-0----6-3--8-0----6-9--8-0----6-3-333-333-3h5-------------------|


Riff 2
E|------------------------------------------------------------------|
B|------------------------------------------------------------------|
G|------------------------------------------------------------------|
D|8888888888-0000000000--8888888888-000000-8888888888-0000000000----|
A|8888888888-0000000000--8888888888-000000-8888888888-0000000000----|
D|8888888888-0000000000--8888888888-000000-8888888888-0000000000----|

E|------------------------------------------------------------------|
B|------------------------------------------------------------------|
G|7h8p0-------------------------------------------------------------|
D|-------8h10p0-10p0-8p0-7p0-8p0------------------------------------|
A|------------------------------------------------------------------|
D|------------------------------------------------------------------|

E|------------------------------------------------------------------|
B|------------------------------------------------------------------|
G|------------------------------------------------------------------|
D|8888888888-0000000000--8888888888-000101010-8888888888-0000000000-|
A|8888888888-0000000000--8888888888-000101010-8888888888-0000000000-|
D|8888888888-0000000000--8888888888-000101010-8888888888-0000000000-|


E|------------------------------------------------------------------|
B|------------------------------------------------------------------|
G|7h8p0-------------------------------------------------------------|
D|-------8h10p0-10p0-8p0-7p0-8p0------------------------------------|
A|------------------------------------------------------------------|
D|------------------------------------------------------------------|


E|------------------------------------------------------------------|
B|------------------------------------------------------------------|
G|------------------------------------------------------------------|
D|8888888888-0000000000-8888888888-00010sd8sd7-8888888888-0000000000|
A|8888888888-0000000000-8888888888-00010sd8sd7-8888888888-0000000000|
D|8888888888-0000000000-8888888888-00010sd8sd7-8888888888-0000000000|


E|------------------------------------------------------------------|
B|------------------------------------------------------------------|
G|7h8p0-------------------------------------------------------------|
D|-------8h10p0-10p0-8p0-7p0-8p0------------------------------------|
A|------------------------------------------------------------------|
D|------------------------------------------------------------------|


Interlude (accents on the down beat)
E|------------------------------------------------------------------|
B|------------------------------------------------------------------|
G|444444444444555---------------------------------------------------|
D|555555555555555---------------------------------------------------|
A|333333333333333---------------------------------------------------|
D|------------------------------------------------------------------|

Break it Down Please
E|-----------------------------------------------------------------|
B|-----------------------------------------------------------------|
G|------------------------------------------------------------(9*)-|
D|000-88-88-000-8p0-8p0-000-88-88—10p0-8p0-7p0---------------------|
A|000-88-88-000-8p0-8p0-000-88-88--------------8p0-10p0-8p0-(7)----|
D|000-88-88-000-8p0-8p0-000-88-88----------------------------------|


Interlude (accents on the down beat)
E|------------------------------------------------------------------|
B|------------------------------------------------------------------|
G|444444444444555---------------------------------------------------|
D|555555555555555---------------------------------------------------|
A|333333333333333---------------------------------------------------|
D|------------------------------------------------------------------|


Bridge
Guitar 1
E|------------------------------------------------------------------|
B|------------------------------------------------------------------|
G|------------------------------------------------------------------|
D|8-0-3-8-0-3-8-0-3-8-0-3-------------------------------------------|
A|8-0-0-8-0-0-8-0-0-8-0-0-------------------------------------------|
D|8-0-0-8-0-0-8-0-0-8-0-0-------------------------------------------|


Guitar 2
E|------------------------------------------------------------------|
B|------------------------------------------------------------------|
G|------------------------------------------------------------------|
D|10~-----0-0-0---10~-----0-0-0—--10~-----0-0-0---------------------|
A|----7h8-------------7h8-------------7h8---------------------------|
D|------------------------------------------------------------------|

Guitar 3
E|101010101010-121212121212-191919191919-171717171717---------------|
B|------------------------------------------------------------------|
G|------------------------------------------------------------------|
D|------------------------------------------------------------------|
A|------------------------------------------------------------------|
D|------------------------------------------------------------------|


Ending
Guitar 1
E|----------------------------------------------------------------|
B|------8----------10---12-12-12-12-7-7-7-8-8-8-8-5-5-5-----------|
G|4-4h5----7-7h9p7------------------------------------------------|
D|----------------------------------------------------------------|
A|----------------------------------------------------------------|
D|----------------------------------------------------------------|

E|----------------------------------------------------------------|
B|----------------------------------------------------------------|
G|----5-----------------------------------------------------------|
D|8-0-5-----------------------------------------------------------|
A|8-0-6-----------------------------------------------------------|
D|8-0-------------------------------------------------------------|
Tap to rate this tab
# A B C D E F G H I J K L M N O P Q R S T U V W X Y Z