Song name
# A B C D E F G H I J K L M N O P Q R S T U V W X Y Z

Misc Unsigned Bands - Miku Hatsune - Yukkuri Shiteitte Ne tab

Miku Hatsune - Yukkuri Shiteitte ne! (Intro)
http://www.youtube.com/watch?v=3cHsNnDfmDs

----------------------------------------------------|
----------------------------------------------------|
--------3-5---------3-5-----------3-5---3-5---3-5---|
-5-5--5-3-5--5-5--5-3-5-3--5-5--5-3-5-5-3-5-5-3-5-3-|
-5-5--5------5-5--5-----3--5-5--5-----5-----5-----3-|

--------------------------------------------------------------|
--------------------------------------------------------------|
--------------------------------------------------------------|
--------3-5---3-5---3-5---------------------------7-7-7-7-7-7-|
-5-5--5-3-5-5-3-5-5-3-5-3-5-5-5-5-5-5-5-5-5-5-5-5-7-7-7-7-7-7-|
-5-5--5-----5-----5-----3-5-5-5-5-5-5-5-5-5-5-5-5-------------|
Tap to rate this tab
 
# A B C D E F G H I J K L M N O P Q R S T U V W X Y Z