Song name
# A B C D E F G H I J K L M N O P Q R S T U V W X Y Z

Misc Unsigned Bands - Vacancies End - Thieves In The Office tab

  "Thieves in the Office"-Vacancies End
----------------------------------------------------------------------------
Tabbed by: ienjoymusic


Tuning: Dropped-D
intro:
e|-----------------------|
B|-----------------------|
G|-----------------------|
D|----------33---5-------|
A|----55535----5---345---|
D|-----------------------| (2X)
      ..... .. . . ...
Verse:
e|----------------------|
B|----------------------|
G|----------------------|
D|---------33---5-------|
A|-5555p3h5--5p3-33h4h5-|
D|----------------------| (6X)
Chorus:                                             After last Chorus Riff:
e|----------------------------------------|       |-----------------|
B|----------------------------------------|       |-----------------|
G|----------------------------------------|       |-----------------|
D|--------3----------5---------3----5~7~--|       |-8-10-12-12-12~--|
A|--0-3-5---5--0-3-5---3-0-3-5---5--5~7~--|       |-8-10-12-12-12~--|
D|----------------------------------5~7~--| (4X)  |-8-10-12-12-12~--|

Bridge:
e|------------------------------------|
B|------------------------------------|
G|------------------------------------|
D|------------------------------------|
A|-555-5br-555-3br-555-----5br-5br----|
D|-555-----555-----555-7br-5br-5br----|
(6X-Palm mute first 2 times then release palm mute)

 Solo played over verse riff- Use Digitech Whammy pedal set to dive bomb, start toe down 
pull up for each note
e|-\15-\13-------------------------\15-\13---------------------------------|
B|--------\15-\13---\13--------------------\15-\13---\13-\15-\17-\15p13p15-|
G|---------------\15----\15-\13-------------------\15----------------------|
D|-----------------------------\15-----------------------------------------|
A|-------------------------------------------------------------------------|
D|-------------------------------------------------------------------------|

e|-\15-\13------------------------\13-\15-\18-\20-\22--|
B|--------\15-\13---\13--------------------------------|
G|---------------\15---\15-\13-------------------------|
D|----------------------------\15----------------------|
A|-----------------------------------------------------|
D|-----------------------------------------------------| (repeat whole solo)

Outro:
e|-----------------------------------------------------------------|
B|-----------------------------------------------------------------|
G|-----------------------------------------------------------------|
D|-----5-7-8-10-8-7--5-7-8-10-8-7--5-7-8-10-8-7--5-7-8-10-8-7-5-5~~|
A|-----5-7-8-10-8-7--5-7-8-10-8-7--5-7-8-10-8-7--5-7-8-10-8-7-5-5~~|
D|-12/-5-7-8-10-8-7--5-7-8-10-8-7--5-7-8-10-8-7--5-7-8-10-8-7-5-5~~|

Intro x 4
verse x 6
chorus x 4
intro x 2
verse x 6
chorus x 4
bridge x 6
solo x 2
chorus x 4
Outro
Tap to rate this tab
# A B C D E F G H I J K L M N O P Q R S T U V W X Y Z