Song name
# A B C D E F G H I J K L M N O P Q R S T U V W X Y Z

Misc Unsigned Bands - Taking Dawn - Time To Burn tab

TAKING DAWN
TIME TO BURN
any comments etc email wasssup@hotmail.co.uk
tuning: drop D (e B G d A D)
just tabs of what he plays,no timings included etc.
also, no pms in this tab, use common sense
*nun not included*

INTRO

e-------------------------------------------------| 
B-------------------------------------------------|
G-101010-10-10-10-10-10-10-10-10-10-10-10-10------|
D-101010-10-10-10-10-10-10-10-10-10-10-10-10------|
A-8-8-8--8--8--8--8--8--8--8--8--8--8--8--8-------|
E--------------------------------------------0-3~-|

e----------------------------------| pick these notes as harmonics.
B----------------------------------| they can also be tremolo picked if you 
G----------------------------------| find the speed difficult.
D----------------------------------|
A----------------------------------|
E-44444444444444444444444444443322-|

CHORUS
note: all the slides to 12 are just rough estimates. don't strictly adhere to them.
e----------------------------------------------| X2
B----------------------------------------------|
G----------------------------------------------|
D---------------------------------0---3--------|
A---------------------------------0---3--------|
E-000003/12-0-3-5-000003/12-0-3-5-0---3-6p0-3~-|

e------------------------------------------------|
B------------------------------------------------|
G------------------------------------------------|
D-0-----------------------------------3-33-0-3-3-|
A-0----------------------------------------------|
E-00000/1200003-000000/6053-3-0-5-5-5------------|

e--------------------------------------------|
B--------------------------------------------|
G--------------------------------------------|
D-0------------------------------------------|
A-0------------------------------5-4-3-------|
E-00000/1200003-0000005p0h5000000------6-5-3-|

VERSE

e-------------------------------------------------| 
B-------------------------------------------------|
G-101010-10-10-10-10-10-10-10-10-10-10-10-10------|
D-101010-10-10-10-10-10-10-10-10-10-10-10-10------|
A-8-8-8--8--8--8--8--8--8--8--8--8--8--8--8-------|
E--------------------------------------------0-3~-|

e-------------------------------------------| same as before
B-------------------------------------------| 
G-------------------------------------------|
D-------------------------------------------|
A-----------------0-0-3-0-0-3-0-0-3-------3-|
E-444444444443322-0-0-3-0-0-3-0-0-3-0-3-0---|

CHORUS

e----------------------------------------------| X2
B----------------------------------------------|
G----------------------------------------------|
D---------------------------------0---3--------|
A---------------------------------0---3--------|
E-000003/12-0-3-5-000003/12-0-3-5-0---3-6p0-3~-|

e------------------------------------------------3/-|
B------------------------------------------------3/-|
G---------------------------------------------------|
D-0-----------------------------------3-33-0-3-3----|
A-0-------------------------------------------------|
E-00000/1200003-000000/6053-3-0-5-5-5---------------|

e--------------------------------------------|
B--------------------------------------------|
G--------------------------------------------|
D-0------------------------------------------|
A-0------------------------------5-4-3-------|
E-00000/1200003-0000005p0h5000000------6-5-3-|

e------------------------------------------|
B------------------------------------------|
G------------------------------------------|
D-0-----0-----3-----0-----5-----3-33-0-3-3-|
A-0-0-0-0-0-0-3-0-0-0-0-0-5-5-5------------|
E-0-0-0-0-0-0-3-0-0-0-0-0-5-5-5------------|

e--------------------------------------------|
B--------------------------------------------|
G--------------------------------------------|
D-0------------------------------------------|
A-0------------------------------5-4-3-------|
E-00000/1200003-0000005p0h5000000------6-5-3-|

SOLO!
played quite fast
e-------------------------------------------------|
B-17-13-12-13-12----------12-13-12-13-17-13-12-13-|
G----------------14----14-------------------------|
D-------------------14----------------------------|
A-------------------------------------------------|
E-------------------------------------------------|

e-------------------------------------------------|
B-17-13-12-13-12----------12-13-12-13-17-13-12-13-|
G----------------14----14-------------------------|
D-------------------14----------------------------|
A-------------------------------------------------|
E-------------------------------------------------|

e-15b17-17-15-17-13-17-12-17-10-17-----10b12r10-------------------|
B----------------------------------12~~---------15b17r15-15-13-12-|
G-----------------------------------------------------------------|
D-----------------------------------------------------------------|
A-----------------------------------------------------------------|
E-----------------------------------------------------------------|

e-------------------------------------------------------------|
B-15b17r15-15b17r15-15-13-15-13----15-13----15-13----15-13----|
G-------------------------------14-------14-------14-------14-|
D-------------------------------------------------------------|
A-------------------------------------------------------------|
E-------------------------------------------------------------|

e--------------------|
B-16-13----13-15b17~-|
G-------14-----------|
D--------------------|
A--------------------|
E--------------------|

e-17~15~-------------------------------------------------------------|
B-------15b17r15-12-15-15b17~-15-12-------------------------15b17r15-|
G-----------------------------------14-12-14b16r14-12----12----------|
D-----------------------------------------------------14-------------|
A--------------------------------------------------------------------|
E--------------------------------------------------------------------|

e-------------------15b17~-12----12-|
B-15b17r15-12----12-----------15----|
G-------------14--------------------|
D-----------------------------------|
A-----------------------------------|
E-----------------------------------|

e-------------------------------------------|
B-12h15t20p12h15t20-12h15t22p15p12t21p15p12-|
G-------------------------------------------|
D-------------------------------------------|
A-------------------------------------------|
E-------------------------------------------|

e-18h19p18p15h17p15-18h19p18p15h17p15-|
B-------------------------------------|
G-------------------------------------|
D-------------------------------------|
A-------------------------------------|
E-------------------------------------|

e-17b19r17p15------17b19~17b19-17b20-22-21-20--16-15-13-22b24~-|
B------------15b17~--------------------------------------------|
G--------------------------------------------------------------|
D--------------------------------------------------------------|
A--------------------------------------------------------------|
E--------------------------------------------------------------|
muck around with the whammy for a bit on the last note.

BRIDGE
silence for a bit, then:
e-------------------------------------------------|
B-------------------------------------------------|
G-------------------------------------------------|
D-------------------------------------------------|
A-0-0-0-0-0-0-0-0-3-3-3-3-3-3-3-3-5-5-5-5-5-5-5-5-|
E-0-0-0-0-0-0-0-0-3-3-3-3-3-3-3-3-5-5-5-5-5-5-5-5-|

CHORUS

e------------------------------------------------3/-|
B------------------------------------------------3/-|
G---------------------------------------------------|
D-0-----------------------------------3-33-0-3-3----|
A-0-------------------------------------------------|
E-00000/1200003-000000/6053-3-0-5-5-5---------------|

e--------------------------------------------|
B--------------------------------------------|
G--------------------------------------------|
D-0------------------------------------------|
A-0------------------------------5-4-3-------|
E-00000/1200003-0000005p0h5000000------6-5-3-|

e-----------------------------------------|
B-----------------------------------------|
G-----------------------------------------|
D-2----------------------------5-55-2-5-5-|
A-2---------------------------------------|
E-222222-22225~-222222-227-2222-----------|

e------------------------------------------------------------|
B------------------------------------------------------------|
G-----------------------------------9-8-7--------------------|
D-2---------------------------------------8-7-5--------------|
A-2----------------------------------------------7-6-5-------|
E-222222-22225~-222222-227p2h7-2222--------------------8-7-5-|

e-----------|
B-----------|
G-----------|
D-----------|
A-2222-2222-|
E-2222-2222-|
Tap to rate this tab
 
# A B C D E F G H I J K L M N O P Q R S T U V W X Y Z