Song name
# A B C D E F G H I J K L M N O P Q R S T U V W X Y Z

Misc Unsigned Bands - Till Death Do We Part - By Me tab

          e-5----------------------------------------------------------------|
          b-6-5---3-3--5-3-2-0-----------------------------------------------|
          g-7-5---3-3--5-3-2-0-----------------------------------------------|
          d------------------------------------------------------------------|
          a----------------------------------------------------------------7-|
          e-------------------0-2-0-2-0-2 0-2-0-0-2-2-5---7-7-5-2-----2-5--7-|
          a c o u s t i c     distortion


          e----------------------------------------------------------|
          d----------------------------------------------------------|
          g----------------------------------------------------------|
          d---------------------------------2^^^^^-------------------|
          a7-7--5-2-0-2-5---7-7-------5--2-0------2-5-7-7-5-2--------|
          e7-7--5-2-0-2-5---7-7-------5--2-0------2-5-7-7-5-2--------|
          second line

          e--------------------------------------------------------------------|
          b------7^------------------------------------------------------------|
          g-7^---7^--7-5-------------------------------------------------------|
          d--------------7-5^^^^-----------------------------------------------|
          a----------------------5-7^^^^-0000--2-------------------------------|
          e------------------------------0000--0 14-13-12-11-10-9-8-7-6-5-4-3--|
           s      o       l           o

          e-------|
          b-------|
          g-------|
          d-------|
          a----0--|
          e2-1-2--|
Tap to rate this tab
 
# A B C D E F G H I J K L M N O P Q R S T U V W X Y Z