Song name
# A B C D E F G H I J K L M N O P Q R S T U V W X Y Z

Misc Unsigned Bands - No Label - Stray Away tab

Intro

E||-----------------------------|------------------------------------------|
B||-------9-999-9-10-9----------|-------9-999-9-10-9---12-10-9-999-9-10-9--|
G||--7-9-----------------7-9----|--7-9-------------------------------------|
D||---------------------------9-|------------------------------------------|
A||-----------------------------|------------------------------------------|
E||-----------------------------|------------------------------------------|

E||-----------------------------|-------------------------|
B||-------9-999-9-10-9----------|-------------------------|
G||--7-9-----------------7-9----|--7-----7-----7----------|
D||---------------------------9-|----7-----------7--------|
A||-----------------------------|----------7-------7------|
E||-----------------------------|-------------------------|

E||------------------------------------------------|
B||------------------------------------------------|
G||------------------------------------------------|
D||------------------------------------------------|
A||------------------------------------------------|
E||--00-10-12----00-10-12----00-10-12----00-10-12--|

E||------------------------------------------------|
B||------------------------------------------------|
G||------------------------------------------------|
D||------------------------------------------------|
A||------------------------------------------------|
E||--00-10-12----00-10-12----00-10-12----00-10-12--|

E||------------------------------------------------|
B||------------------------------------------------|
G||------------------------------------------------|
D||------------------------------------------------|
A||------------------------------------------------|
E||--00-10-12----00-10-12----00-10-12----00-10-12--|

E||------------------------------------------------------------------------|
B||------------------------------------------------------------------------|
G||------------------------------------------------------------------------|
D||--------------------------14-14-14----14-14-14----14-14-14----14-14-14--|
A||--------------------------14-14-14----14-14-14----14-14-14----14-14-14--|
E||--00-10-12----00-10-12----12-12-12----12-12-12----12-12-12----12-12-12--|

Bridge

E||--------------------|--------------------|
B||--------------------|--------------------|
G||--9---7-------------|--9---7-------------|
D||--7---7---9---10----|--9---7---9---10----|
A||--7---5---9---10----|--7---5---9---10----|
E||--0-------7---8-----|--0-------7---8-----|

E||----------------------------------------------------|
B||----------------------------------------------------|
G||--9-9-9-9---7-7-7-7---------------------------------|
D||--7-7-7-7---7-7-7-7---9-9-9-9---10-10-10-10---------|
A||--7-7-7-7---5-5-5-5---9-9-9-9---10-10-10-10---------|
E||--0-0-0-0-------------7-7-7-7---8--8--8--8----------|

E||----------------------------------------------------|
B||----------------------------------------------------|
G||--9-9-9-9---7-7-7-7---------------------------------|
D||--7-7-7-7---7-7-7-7---9-9-9-9---10-10-10-10---------|
A||--7-7-7-7---5-5-5-5---9-9-9-9---10-10-10-10---------|
E||--0-0-0-0-------------7-7-7-7---8--8--8--8----------|

Verse

E||--------------------|--------------------|
B||--------------------|--------------------|
G||--9---7-------------|--9---7-------------|
D||--7---7---9---10----|--9---7---9---10----|
A||--7---5---9---10----|--7---5---9---10----|
E||--0-------7---8-----|--0-------7---8-----|

E||--------------------|--------------------|
B||--------------------|--------------------|
G||--9---7-------------|--9---7-------------|
D||--7---7---9---10----|--9---7---9---10----|
A||--7---5---9---10----|--7---5---9---10----|
E||--0-------7---8-----|--0-------7---8-----|

Chorus

E||-------------------------------------|
B||-------------------------------------|
G||--7--9---13-14-15-----7--9-----------|
D||--7--7---13-14-15-----7--9---7-6-2---|
A||--5--7---11-12-13-----5--7---7-6-2---|
E||-----------------------------5-4-0---|

E||-------------------------------------|
B||-------------------------------------|
G||--7--9---13-14-15-----7--9---7-9-----|
D||--7--7---13-14-15-----7--9---7-9-----|
A||--5--7---11-12-13-----5--7---5-7-----|
E||-------------------------------------|

E||-------------------------------------|
B||-------------------------------------|
G||--7--9---13-14-15-----7--9-----------|
D||--7--7---13-14-15-----7--9---7-6-2---|
A||--5--7---11-12-13-----5--7---7-6-2---|
E||-----------------------------5-4-0---|

E||-------------------------------------|
B||-------------------------------------|
G||--7--9---13-14-15-----7--9---7-9-----|
D||--7--7---13-14-15-----7--9---7-9-----|
A||--5--7---11-12-13-----5--7---5-7-----|
E||-------------------------------------|

Solo

E||-------------------------------------|--12-10-9--10-9-----9-----------|
B||-------9-10-9-10---12--10--9-10-9----|----------------12----12-10--9--|
G||--7-9--------------------------------|--------------------------------|
D||-------------------------------------|--------------------------------|
A||-------------------------------------|--------------------------------|
E||-------------------------------------|--------------------------------|

E||-----------9-10-12----------9-10-12--|--12--10--9-------------|
B||--9-10-12----------9-10-12-----------|-------------12--10--9--|
G||-------------------------------------|------------------------|
D||-------------------------------------|------------------------|
A||-------------------------------------|------------------------|
E||-------------------------------------|------------------------|

E||-----------------|-----------------|----------|
B||--9h10-9h10--12--|--9h10-9h10--12--|--9h10h9--|
G||-----------------|-----------------|----------|
D||-----------------|-----------------|----------|
A||-----------------|-----------------|----------|
E||-----------------|-----------------|----------|

E||--9h10-9h10--12--|--9h10-9h10--12--|--9h10h9--|
B||-----------------|-----------------|----------|
G||-----------------|-----------------|----------|
D||-----------------|-----------------|----------|
A||-----------------|-----------------|----------|
E||-----------------|-----------------|----------|

E||--10h12-10h12--14-12--10h12h10--9-10-9--10-9----------|
B||---------------------------------------------12-10-9--|
G||------------------------------------------------------|
D||------------------------------------------------------|
A||------------------------------------------------------|
E||------------------------------------------------------|

E||-----------------------------|-------------------------|
B||-------9-999-9-10-9----------|-------------------------|
G||--7-9-----------------7-9----|--7-----7-----7----------|
D||---------------------------9-|----7-----------7--------|
A||-----------------------------|----------7-------7------|
E||-----------------------------|-------------------------|

Bridge

E||--------------------|--------------------|
B||--------------------|--------------------|
G||--9---7-------------|--9---7-------------|
D||--7---7---9---10----|--9---7---9---10----|
A||--7---5---9---10----|--7---5---9---10----|
E||--0-------7---8-----|--0-------7---8-----|

E||----------------------------------------------------|
B||----------------------------------------------------|
G||--9-9-9-9---7-7-7-7---------------------------------|
D||--7-7-7-7---7-7-7-7---9-9-9-9---10-10-10-10---------|
A||--7-7-7-7---5-5-5-5---9-9-9-9---10-10-10-10---------|
E||--0-0-0-0-------------7-7-7-7---8--8--8--8----------|

E||----------------------------------------------------|
B||----------------------------------------------------|
G||--9-9-9-9---7-7-7-7---------------------------------|
D||--7-7-7-7---7-7-7-7---9-9-9-9---10-10-10-10---------|
A||--7-7-7-7---5-5-5-5---9-9-9-9---10-10-10-10---------|
E||--0-0-0-0-------------7-7-7-7---8--8--8--8----------|

Verse

E||--------------------|--------------------|
B||--------------------|--------------------|
G||--9---7-------------|--9---7-------------|
D||--7---7---9---10----|--9---7---9---10----|
A||--7---5---9---10----|--7---5---9---10----|
E||--0-------7---8-----|--0-------7---8-----|

E||--------------------|--------------------|
B||--------------------|--------------------|
G||--9---7-------------|--9---7-------------|
D||--7---7---9---10----|--9---7---9---10----|
A||--7---5---9---10----|--7---5---9---10----|
E||--0-------7---8-----|--0-------7---8-----|

Chorus

E||-------------------------------------|
B||-------------------------------------|
G||--7--9---13-14-15-----7--9-----------|
D||--7--7---13-14-15-----7--9---7-6-2---|
A||--5--7---11-12-13-----5--7---7-6-2---|
E||-----------------------------5-4-0---|

E||-------------------------------------|
B||-------------------------------------|
G||--7--9---13-14-15-----7--9---7-9-----|
D||--7--7---13-14-15-----7--9---7-9-----|
A||--5--7---11-12-13-----5--7---5-7-----|
E||-------------------------------------|

E||-------------------------------------|
B||-------------------------------------|
G||--7--9---13-14-15-----7--9-----------|
D||--7--7---13-14-15-----7--9---7-6-2---|
A||--5--7---11-12-13-----5--7---7-6-2---|
E||-----------------------------5-4-0---|

E||-------------------------------------|
B||-------------------------------------|
G||--7--9---13-14-15-----7--9---7-9-----|
D||--7--7---13-14-15-----7--9---7-9-----|
A||--5--7---11-12-13-----5--7---5-7-----|
E||-------------------------------------|

Outro

E||------------------------------------------------|
B||------------------------------------------------|
G||------------------------------------------------|
D||------------------------------------------------|
A||------------------------------------------------|
E||--00-10-12----00-10-12----00-10-12----00-10-12--|

E||------------------------------------------------|
B||------------------------------------------------|
G||------------------------------------------------|
D||------------------------------------------------|
A||------------------------------------------------|
E||--00-10-12----00-10-12----00-10-12----00-10-12--|

E||------------------------------------------------|
B||------------------------------------------------|
G||------------------------------------------------|
D||------------------------------------------------|
A||------------------------------------------------|
E||--00-10-12----00-10-12----00-10-12----00-10-12--|

E||------------------------------------------------------------------------|
B||------------------------------------------------------------------------|
G||------------------------------------------------------------------------|
D||--------------------------14-14-14----14-14-14----14-14-14----14-14-14--|
A||--------------------------14-14-14----14-14-14----14-14-14----14-14-14--|
E||--00-10-12----00-10-12----12-12-12----12-12-12----12-12-12----12-12-12--|

E||-----------------------------|-------------------------|
B||-------9-999-9-10-9----------|-------------------------|
G||--7-9-----------------7-9----|--7-----7-----7----------|
D||---------------------------9-|----7-----------7--------|
A||-----------------------------|----------7-------7------|
E||-----------------------------|-------------------------|

Tap to rate this tab
 
# A B C D E F G H I J K L M N O P Q R S T U V W X Y Z