Song name
# A B C D E F G H I J K L M N O P Q R S T U V W X Y Z

Misc Unsigned Bands - Logan Stubbs - Thank You tab

INTRO (DISTORTION GUITAR)
E |--------------------------------------------------------|
B |--------------------------------------------------------|
G |---------5--5--5/4--------2--2--2/4---------------------|
D |----5-----------------2---------------------3--3--3/2---|
A |--3---3-------------0---0--------------3----------------|
E |-------------------------------------1---1--------------|

E |------------------------------------------------------|
B |------------------------------------------------------|
G |------------------------------------------------------|
D |--------5--5--5/9~~~--(INTRO X2)----------------------|
A |----5-------------------------------------------------|
E |--3---3-----------------------------------------------|


VERSE
               C                      A
I've got no problem with the way you are!
F                          G
we took this little fight way too far.
C                                        A
but now your up again you've lost your frown
F                        G
you turn my empty world upside down


CHORUS
          C                               A
So now im thanking you for everything you do
      F
youre incredible
G
exceptional

CHORUS 2
    C           C
and these small words
A             A
that ive been stating
F       F
ive got time
G (LET RING)
i'll be waiting

INTRO (ONCE)
E |-------------------------------------------------------------|
B |-------------------------------------------------------------|
G |---------5--5--5/4--------2--2--2/4--------------------------|
D |----5-----------------2---------------------3--3--3/2--------|
A |--3---3-------------0---0--------------3---------------------|
E |-------------------------------------1---1-------------------|


E |------------------------------------------------------|
B |------------------------------------------------------|
G |------------------------------------------------------|
D |--------5--5--5/9-----(INTRO X1)----------------------|
A |----5-------------------------------------------------|
E |--3---3-----------------------------------------------|


BREAKDOWN

E |--------------------------------------------------------|
B |--------------------------------------------------------|
G |--5-5-5-5-5-5-5555/2-2-2-2-2-2-2222/--------------------|
D |--5-5-5-5-5-5-5555/2-2-2-2-2-2-2222/3-3-3-3-3-3-3333/---|
A |--3-3-3-3-3-3-3333/0-0-0-0-0-0-0000/3-3-3-3-3-3-3333/---|
E |------------------------------------1-1-1-1-1-1-1111/---|
       * *   *   ****   * *   *   ****   * *   *   ****

E |------------------------------------------------------|
B |------------------------------------------------------|
G |------------------------------------------------------|
D |/5-5-5-5-5-5-5555~~~----------------------------------|
A |/5-5-5-5-5-5-5555~~~----------------------------------|
E |/3-3-3-3-3-3-3333~~~----------------------------------|
      * *   *   ***

VERSE 2
            C
You've got beauty, grace
A
you've got it all
   F
in empty space
    G
i'd never let you fall
           C
We've got something real
A
its something new
    F
the way you feel
G (LET RING)
i feel too..

CHORUS
          C                               A
So now im thanking you for everything you do
      F
youre incredible
G
exceptional

CHORUS 2
    C           C
and these small words
A             A
that ive been stating
F       F
ive got time
G (LET RING)
i'll be waiting

OUTRO (just vocals)

These small words, that you've been stating, "I've got
time, I'll be waiting.."
Tap to rate this tab
 
# A B C D E F G H I J K L M N O P Q R S T U V W X Y Z