Song name
# A B C D E F G H I J K L M N O P Q R S T U V W X Y Z

Misc Unsigned Bands - Fukami Rika - Natsuhibohshi tab

-----------------------------------------------------------------------------
NATSUHIBOSHI - NARUTO
-----------------------------------------------------------------------------
Tabbed by: ARHmaniac
Email: arichunter13@hotmail.com
Tuning: standard

If you want to hear how the song is supposed to sound, or have something to play along 
here is a youtuve video of me playing the song.
http://www.youtube.com/watch?v=CuEKvkl8tgY

e|-12--12--12--10--12----12--15-|-10----10-12-10-----|-8---------8--8--8-----|
B|-13---------------------------|-10--------------10-|-10----10-----------10-|
G|-14---------------------------|-10-----------------|-10--------------------|
D|------------------------------|--------------------|-----------------------|
A|------------------------------|--------------------|-----------------------|
E|------------------------------|--------------------|-----------------------|

e|-7----7-8-7----|-12----10--12----12--15-|-10----12--10----|-7----7--8-7---|
B|-9-----------9-|-13---------------------|-10--------------|-8--------------|
G|-9-------------|-14---------------------|-10--------------|-7--------------|
D|---------------|------------------------|-----------------|----------------|
A|---------------|------------------------|-----------------|----------------|
E|---------------|------------------------|-----------------|----------------|

e|-5-------5-------|-------12----10------------|--------------------|
B|-5----5----------|-10-----------------13--12-|-10--------10-------|
G|-5---------------|---------------------------|-------12------9----|
D|-----------------|---------------------------|--------------------|
A|-----------------|---------------------------|--------------------|
E|-----------------|---------------------------|--------------------|

e|-----------10--------------|------------------|-------12----10----------|
B|-10---13---------10--------|-10--------10-----|-10----------------1312-|
G|------------------------12-|-------12---------|-------------------------|
D|---------------------------|------------------|-------------------------|
A|---------------------------|------------------|-------------------------|
E|---------------------------|------------------|-------------------------|

e|--------------------|-----------10----------|------------------|
B|-10--------10-------|-10---13--------13--12-|-10--------10-----|
G|-------12------9----|-----------------------|-------12---------|
D|--------------------|-----------------------|------------------|
A|--------------------|-----------------------|------------------|
E|--------------------|-----------------------|------------------|
Tap to rate this tab
 
# A B C D E F G H I J K L M N O P Q R S T U V W X Y Z