Song name
# A B C D E F G H I J K L M N O P Q R S T U V W X Y Z

Misc Unsigned Bands - Dead Regret - Let Down tab

Band: Dead Regret
Song: Let Down
Genre: Punk
Music: Jon Kopatich
Lyrics: Jon Kopatich
Tuning: E Standard

Intro/Chorus:
e|-------------------------------------------------------------------------|
B|-------------------------------------------------------------------------|
G|-------------------------------------------------------------------------|
D|-------------------------------------------------------------------------|
A|-7-7-7-7-7-8-7-0-5-7-5-0-3-5-3-0-----------------------------------------|
E|-5-5-5-5-----------------------------------------------------------------|

Verse:
e|-------------------------------------------------------------------------|
B|-------------------------------------------------------------------------|
G|-------------------------------------------------------------------------|
D|-------------------------------------------------------------------------|
A|-7-7-7-7-7-7-7-7-10-10-10-10-10-10-10-10-5-5-5-5-5-5-5-5-8-8-8-8-8-8-8-8-|
E|-5-5-5-5-5-5-5-5-8--8--8--8--8--8--8--8--3-3-3-3-3-3-3-3-6-6-6-6-6-6-6-6-|

e|-------------------------------------------------------------------------|
B|-------------------------------------------------------------------------|
G|-------------------------------------------------------------------------|
D|-------------------------------------------------------------------------|
A|-7-7-7-7-7-7-7-7-10-10-10-10-10-10-10-10-5-5-5-5-5-5-5-5-8-8-8-8-8-8-8-8-|
E|-5-5-5-5-5-5-5-5-8--8--8--8--8--8--8--8--3-3-3-3-3-3-3-3-6-6-6-6-6-6-6-6-|

e|-------------------------------------------------------------------------|
B|-------------------------------------------------------------------------|
G|-------------------------------------------------------------------------|
D|-------------------------------------------------------------------------|
A|-7-7-7--7-7-7--10-10-10--10-10-10--5-5-5--5-5-5--8-8-8--8-8-8------------|
E|-5-5-5--5-5-5--8--8--8---8--8--8---3-3-3--3-3-3--6-6-6--6-6-6------------|
   . .    . .    .  .      .  .      . .    . .    . .    . .             
e|-------------------------------------------------------------------------|
B|-------------------------------------------------------------------------|
G|-------------------------------------------------------------------------|
D|-------------------------------------------------------------------------|
A|-7-7-7--7-7-7--10-10-10--10-10-10--5-5-5--5-5-5--8-8-8--8-8-8------------|
E|-5-5-5--5-5-5--8--8--8---8--8--8---3-3-3--3-3-3--6-6-6--6-6-6------------|
   . .    . .    .  .      .  .      . .    . .    . .    . .              
Outro:
e|------------------|
B|------------------|
G|------------------|
D|------------------|
A|-7--7--7--7-7-7-7-|
E|-5--5--5--5-5-5-5-|

Order:
Intro  x8
Verse  x2
Chorus x4
Verse  x2
Chorus x4
Outro  x1

Key:
| /  slide up
| \  slide down
| h  hammer-on
| p  pull-off
| ~  vibrato
| +  harmonic
| x  Mute note
| .  Palm Mute
Tap to rate this tab
# A B C D E F G H I J K L M N O P Q R S T U V W X Y Z