Song name
# A B C D E F G H I J K L M N O P Q R S T U V W X Y Z

Misc Unsigned Bands - Fallen Vengance - Number Six Six Six tab

all right guys this is one of  my bands best songs. i will get an mp3 on as soon as we 
get a good recording studio.

Tuning Drop D

First Intro Riff
e|-------------------------------------------------------------------|
b|-------------------------------------------------------------------|
g|-------------------------------------------------------------------|
d|-------------------------------------------------------------------|
a|0-0-1-0-0-3-0-0-1-0-0------0-0-1-0-0-3-0-0-1-0-0-------------------|
D|0-0-1-0-0-3-0-0-1-0-0------0-0-1-0-0-3-0-0-1-0-0-------------------|

then for the second riff you just take out the pause between those two measrures.

Verse Riff
e|--------------------------------------------------------------------|
b|--------------------------------------------------------------------|
g|--------------------------------------------------------------------|
d|--------------------------------------------------------------------|x4
a|1-1-2-1-1-2-1-1-2-1-1-3---1-1-2-1-1-2-1-1-2-1-1-3-------------------|
D|1-1-2-1-1-2-1-1-2-1-1-3---1-1-2-1-1-2-1-1-2-1-1-3-------------------|

End Verse With
e|--------------------------------------------------------------------|
b|--------------------------------------------------------------------|
g|--------------------------------------------------------------------|
d|----------------------3-3-3-----------------------------------------|
a|1-1-2-1-1-2-1-1-2-1-1-3-3-3-----------------------------------------|
D|1-1-2-1-1-2-1-1-2-1-1-3-3-3-----------------------------------------|

solo hold down on 9th fret with picking hand
e|h13h17p9h13h17p9h13h17p9h13h17p9-h14h18p9h14h18p9h14h18p9-----------|x3
b|--------------------------------------------------------------------|
g|--------------------------------------------------------------------|
d|--------------------------------------------------------------------|
a|--------------------------------------------------------------------|
D|--------------------------------------------------------------------|
hold on 12th fret with picking hand
e|h17h19p12h17h19p12h17h19p12h17h19p12-h18h20p12h18h20p12h18h20p12----|x2
b|--------------------------------------------------------------------|
g|--------------------------------------------------------------------|
d|--------------------------------------------------------------------|
a|--------------------------------------------------------------------|
D|--------------------------------------------------------------------|

then you just play the last verse using the same verse riff and then its over... thanks 
please rate.

i dont have my guitar with me right now so i will update this later, but im pretty sure 
everything is right, the solo might be off but thats it. thanks
Tap to rate this tab
# A B C D E F G H I J K L M N O P Q R S T U V W X Y Z