Song name
# A B C D E F G H I J K L M N O P Q R S T U V W X Y Z

Misc Unsigned Bands - Louis Bonfia - Black Orpheus tab

Thats an old Jazz-Standard, enjoy!

Black Orpheus                                   

(Bossa = 120)
Lead
     H.           Q         H.           E  E     H.           E  E   
E||--------------------||----------------------|---------------------|
B||--------------------||----------------------|---------------------|
G||--------------------||*--5------------4-----|------------------4--|
D||--------------------||*------------------7--|--7------------6-----|
A||---------------7----||----------------------|---------------------|
E||--------------------||----------------------|---------------------|
 
 
  W                   H.           Q       H.           E  E   
-------------------|--------------------|---------------------|
-------------------|--------------------|---------------------|
-------------------|--------------------|--5------------4-----|
-------------------|--------------------|------------------7--|
--7----------------|--L------------7----|---------------------|
-------------------|--------------------|---------------------|
 
 
  H.           E  E     W                   H        E  E  E  E   
---------------------|-------------------|-----------------------|
---------------------|-------------------|-----------------------|
------------------4--|-------------------|-----------------------|
--7------------5-----|-------------------|--------------------5--|
---------------------|--7----------------|--L-----------7--8-----|
---------------------|-------------------|-----------------------|
 
 
  Q.     E  H           H        E  E  E  E     Q.     E  H         
---------------------|-----------------------|---------------------|
---------------------|-----------------------|---------------------|
---------------------|-----------------------|---------------------|
--7------------------|-----------------------|--5------------------|
---------5--5--------|--L-----------5--7--8--|---------------------|
---------------------|-----------------------|---------8--8--------|
 
 
  H        E  E  E  E     Q.     E  H           H        E  E  E  E   
-----------------------|---------------------|-----------------------|
-----------------------|---------------------|-----------------------|
-----------------------|---------------------|-----------------------|
-----------------------|---------------------|-----------------------|
-----------------5--7--|--8------------------|--------------------5--|
--L-----------8--------|---------7--7--------|--L-----------7--8-----|
 
 
  W                   H.           Q       H.           E  E   
-------------------|--------------------|---------------------|
-------------------|--------------------|---------------------|
-------------------|--------------------|--5------------4-----|
-------------------|--------------------|------------------7--|
--7----------------|--L------------7----|---------------------|
-------------------|--------------------|---------------------|
 
 
  H.           E  E     W                   H.           Q     
---------------------|-------------------|--------------------|
---------------------|-------------------|--------------------|
------------------4--|-------------------|--------------------|
--7------------6-----|-------------------|--------------------|
---------------------|--7----------------|--L------------7----|
---------------------|-------------------|--------------------|
 
 
  H.           E  E     H.           E  E     W                 
---------------------|---------------------|-------------------|
---------------------|---------------------|-------------------|
---------------------|---------------------|-------------------|
--8------------7--5--|--5------------------|--7----------------|
---------------------|---------------8--7--|-------------------|
---------------------|---------------------|-------------------|
 
 
  H.           Q       H.           E  E     W                 
--------------------|---------------------|-------------------|
--------------------|---------------------|-------------------|
--------------------|---------------------|--4----------------|
--L-----------------|---------------------|-------------------|
---------------5----|--5------------7--8--|-------------------|
--------------------|---------------------|-------------------|
 
 
  Q    Q    Q    E  E     H.           Q       W                 
-----------------------|--------------------|-------------------|
-----------------------|--------------------|-------------------|
-----------------------|--------------------|-------------------|
-----------------------|--7------------6----|-------------------|
-----------------5--7--|--------------------|--7----------------|
-------8----8----------|--------------------|-------------------|
 
 
  H        Q    E  E     W                   H.           Q        
----------------------|-------------------|----------------------||
----------------------|-------------------|----------------------||
-------------------4--|-------------------|--------------------*-||
----------------6-----|--7----------------|--L-----------------*-||
-----------7----------|-------------------|---------------7------||
----------------------|-------------------|----------------------||
 
 
 
 
Duration Legend
---------------
W - whole
H - half
Q - quarter
E - 8th
S - 16th
T - 32nd
X - 64th
. - note dotted
|-n-|  - n-tuplets
 
 
Tablature Legend
----------------
L - tied note
x - dead note
g - grace note
(n) - ghost note
> - accentuded note
NH - natural harmonic
AH - artificial harmonic
TH - tapped harmonic
SH - semi harmonic
PH - pitch harmonic
h - hammer on
p - pull off
b - bend
br - bendRelease
pb - preBend
pbr - preBendRelease
brb - bendReleaseBend
\n/ - tremolo bar dip
\n - tremolo bar dive
-/n - tremolo bar Release up
/n\ - tremolo bar inverted dip
/n - tremolo bar return
-\n - tremolo bar Release down
S - shift slide
s - legato slide
/ -  slide into from below or out of upwards
\ -  slide into from above or out of downwards
~ - vibrato
W - wide vibrato
tr - tril'
TP - tremolo picking
T - tapping
S - slap
P - pop
< - fade in
^ - brush up
v - brush down
Tap to rate this tab
# A B C D E F G H I J K L M N O P Q R S T U V W X Y Z