Song name
# A B C D E F G H I J K L M N O P Q R S T U V W X Y Z

Misc Unsigned Bands - Venture South - Feeling Fine tab

Venture South - Feeling Fine (Newsome)

(Tuning = D#, G#, C#, F#, A#, D#)

Main Riff / Chorus

-5-5-5-5--5-5--7-7-7---3-3-3-3--3-3-3----5-5-5-5--5-5--7-7-7---3-3-3-3-3-3-3-3-3-3-3-3-|
-7-7-7-7--7-7--8-8-8---5-5-5-3--3-3-3----7-7-7-7--7-7--8-8-8---5-5-5-5-5-5-5-5-5-5-5-5-|
-7-7-7-7--7-7--7-7-7---5-5-5-4--4-4-4----7-7-7-7--7-7--7-7-7---5-5-5-5-5-5-5-5-5-5-5-5-|
-7-7-7-7--7-7--9-9-9---5-5-5-5--5-5-5----7-7-7-7--7-7--9-9-9---5-5-5-5-5-5-5-5-5-5-5-5-|
-5-5-5-5--5-5--7-7-7---3-3-3-5--5-5-5----5-5-5-5--5-5--7-7-7---3-3-3-3-3-3-3-3-3-3-3-3-|
-----------------------------3--3-3-3--------------------------------------------------|

Verse

-2----3-2--2-0-2-0--2-2-------------3-|
-3----3-3--3-3-3-3--2-2-------------3-|
-2----2-2--2-2-2-2--0-0-------------0-|
--------------------0-0--0-2-0--------|
--------------------2-2---------2-----|
--------------------3-3-----------3---|

Bridge

-2-------2--2-------2--2-------2--2-------2--2-------2--2-------2--2-|
-3-------3--2-------2--3-------3--2-------2--3-------3--2-------2--3-|
-4-------4--2-------2--4-------4--2-------2--4-------4--2-------2--0-|
-4-------4--0-------0--4-------4--0-------0--4-------4--0-------0--2-|
-2-------2--2-------2--2-------2--2-------2--2-------2--2-------2--3-|
-2-------2--3-------3--2-------2--3-------3--2-------2--3-------3----|


Solo

-----------------------------------------------------------------------|
-----------------------------------------------------------------------|
-5h7---12b13-12-10h12p10-----------------------------------------------|
-------------------------12--12-10h12p10-------------------------12hr--|
-------------------------------------------12-10-8-10b1210-8-----------|
-------------------------------------------------------------10--------|

-----------------------------------------------------------------------------------|
-----------------------------------------------------------------------------------|
-5h7---12b13-12-10h12p10-------------------------------------------------------7-9-|
-------------------------12--12-10h12p10-----------------------------------7-9-----|
-------------------------------------------12-10-8-10b1210-8-----------7-9---------|
-------------------------------------------------------------10---7-10-------------|


-------------------------------------------------------------|
-------------------------------------------------------------|
-9b11-9-7----7-9-9b10-9-7h9p7---------------------7----------|
-----------9------------------9----11-12-11-9-7h9---9-7h9-9--|
-------------------------------------------------------------|
-------------------------------------------------------------|

------------10-12-12b14-12-10-10b12-10-------------------------------|
9-10s12-12-----------------------------12-12----10h12-12b14-15b17-12-|
---------------------------------------------------------------------|
---------------------------------------------------------------------|
---------------------------------------------------------------------|
---------------------------------------------------------------------|

------------------------------------3--|
-11h13p11h13p11h13p11-13b15---------3--|
------------------------------------0--|
------------------------------------0--|
------------------------------------2--|
------------------------------------3--|

Acoustic section

-2-2-2-2--2-2--3-3-3---3-3-3-3--3-3-3-----2-2-2-2--2-2--3-|
-3-3-3-3--3-3--3-3-3---3-3-3-3--3-3-3-----3-3-3-3--3-3--3-|
-2-2-2-2--2-2--0-0-0---0-0-0-0--0-0-0-----2-2-2-2--2-2--0-|
-0-0-0-0--0-0--0-0-0---2-2-2-0--0-0-0-----0-0-0-0--0-0--0-|
---------------2-2-2---3-3-3-2--2-2-2-------------------2-|
-----------------------------3--3-3-3---------------------|
Tap to rate this tab
 
# A B C D E F G H I J K L M N O P Q R S T U V W X Y Z