Song name
# A B C D E F G H I J K L M N O P Q R S T U V W X Y Z

Misc Unsigned Bands - The Vehicle Field - Attack Retreat tab

Attack Retreat - The Vehicle Field (www.myspace.com/thevehiclefielduk)

Tuning - Drop C (CGCFAD)

INTRO

D|-----------------------------------|
A|-----------------------------------|
F|-----------------------------------|
C|---0-------0-------0-------0-------|
G|---0-------0-------0-------0-------|
C|---0-------0-------0-------0-------|


D|-------------------------------------------|
A|-------------------------------------------|
F|-------------------------------------------|
C|---00-0-000------00-0-000------00-0-000----|
G|---00-0-000------00-0-000------00-0-000----|
C|---00-0-000------00-0-000------00-0-000----|
     PM--------------------------------------|


VERSE

D|-------------------------------------------------------|
A|-------------------------------------------------------|
F|-------------------------------------------------------|
C|---00-0-000---00-0-000-2/3---00-0-000---3-2---5-3------| x4
G|---00-0-000---00-0-000-2/3---00-0-000-------3-----5----|
C|---00-0-000---00-0-000-2/3---00-0-000------------------|
     PM-----------------       PM------------------------|

D|--------------|
A|--------------|
F|--------------|
C|-3-2---5-3----|
G|-----3-----5--|
C|--------------|

CHORUS


GUITAR 1

D|---------------------------------------------------------------------|
A|---------------------------------------------------------------------|
F|---------------------------------------------------------------------|
C|--0----------------3--------2-------8--------------3------2----------| X4
G|--0----------------3--------2-------8--------------3------2----------|
C|--0----------------3--------2-------8--------------3------2----------|


GUITAR 2

D|---------------------------------------------------------------------|
A|---------------------------------------------------------------------|
F|---------------------------------------------------------------------|
C|-----10----9-9-10-----10----9-9-10----10---9-9-10----10---12-10-9----| X4
G|--12----12---------10----10---------8----8---------7----7------------|
C|---------------------------------------------------------------------|


VERSE

D|-------------------------------------------------------|
A|-------------------------------------------------------|
F|-------------------------------------------------------|
C|---00-0-000---00-0-000-2/3---00-0-000---3-2---5-3------| x4
G|---00-0-000---00-0-000-2/3---00-0-000-------3-----5----|
C|---00-0-000---00-0-000-2/3---00-0-000------------------|
     PM-----------------       PM------------------------|


D|--------------|
A|--------------|
F|--------------|
C|-3-2---5-3----|
G|-----3-----5--|
C|--------------|

CHORUS


GUITAR 1

D|--------------------------------------------------------------------|
A|--------------------------------------------------------------------|
F|--------------------------------------------------------------------|
C|--0----------------3--------2-------8--------------3------2---------| X4
G|--0----------------3--------2-------8--------------3------2---------|
C|--0----------------3--------2-------8--------------3------2---------|


GUITAR 2

D|----------------------------------------------------------------------|
A|----------------------------------------------------------------------|
F|----------------------------------------------------------------------|
C|-----10----9-9-10-----10----9-9-10----10---9-9-10----10---/12-10-9----| X4
G|--12----12---------10----10---------8----8---------7----7-------------|
C|----------------------------------------------------------------------|

BRIDGE

D|--------------------|
A|--------------------|
F|--------------------|
C|-0-0-0----0-0-0-----| X8
G|-0-0-0----0-0-0-----|
C|-0-0-0----0-0-0-----|
   PM-----------------|

GUITAR 2

D|---------------------------------------------------------------------|
A|---------------------------------------------------------------------|
F|---------------------------------------------------------------------|
C|-----10----9-9-10-----10----9-9-10----10---9-9-10----10---12-10-9----| X1
G|--12----12---------10----10---------8----8---------7----7------------|
C|---------------------------------------------------------------------|


CHORUS


GUITAR 1

D|-------------------------------------------------------------------|
A|-------------------------------------------------------------------|
F|-------------------------------------------------------------------|
C|--0----------------3--------2-------8--------------3------2--------| X5
G|--0----------------3--------2-------8--------------3------2--------|
C|--0----------------3--------2-------8--------------3------2--------|


GUITAR 2

D|---------------------------------------------------------------------|
A|---------------------------------------------------------------------|
F|---------------------------------------------------------------------|
C|-----10----9-9-10-----10----9-9-10----10---9-9-10----10---12-10-9----| X5
G|--12----12---------10----10---------8----8---------7----7------------|
C|---------------------------------------------------------------------|


OUTRO

D|---------------------------------------------------|
A|---------------------------------------------------|
F|---------------------------------------------------|
C|-0-0-0--0-0-0----0-0-0--0-0-0----3-2---5-3----0----|
G|-0-0-0--0-0-0----0-0-0--0-0-0--------3-----5--0----|
C|-0-0-0--0-0-0----0-0-0--0-0-0-----------------0----|
   PM------------------------------------------------|
Tap to rate this tab
# A B C D E F G H I J K L M N O P Q R S T U V W X Y Z