Song name
# A B C D E F G H I J K L M N O P Q R S T U V W X Y Z

Misc Unsigned Bands - Before We Were Human - You Shouldnt Have Underestimated Me tab

Intro

C#|--------------------------------|
G#|--------------------------------|
 E|--------------------------------|
 b|--------------------------------|   x2
F#|-0010020030020011001002003002---|
 B|-0010020030020011001002003002---|

PM| ---------------------------  

Verse 1

C#|---------------------------------------|
G#|---------------------------------------|
 E|---------------------------------------|
 b|---------------------------------------|
F#|---------------------------------------|
 B|-12321111-12321111-12321111-12321111---|

Verse 1 Part 2 (follow the syllables)

C#|------------------------------------------------------|
G#|------------------------------------------------------|
 E|------------------------------------------------------|
 b|------------------------------------------------------|
F#|-000-00-00-0-000-000-000000----------0000-------------|
 B|-000-00-00-0-000-000-0000002h3-2h3-2-0000-2-0h2-0h2---|

PM| --- -- -- - --- --- ------          ----

Verse 2

C#|----------------------------------------------|
G#|----------------------------------------------|
 E|----------------------------------------------|
 b|----------------------------------------------|   x2
F#|-00-000-00-000----------00-000-00-000---------|
 B|-00-000-00-000-12321111-00-000-00-000-1232/7--|

PM| -- --- -- ---          -- --- -- ---

Breakdown

C#|-------------------------------------|
G#|-------------------------------------|
 E|-------------------------------------|
 b|-------------------------------------|   x2
F#|-00-00000000---00-00000000-----------|
 B|-00-00000000---00-0000000056765555---|

PM| -- --------   -- --------

(End on an open up stroke)

Interlude Part 1

[Break]

Interlude Part 2

C#|-------------------------------------------|
G#|-------------------------------------------|
 E|-------------------------------------------|
 b|-------------------------------------------|
F#|-0-0-0-0-0-0-0-0-0-0-0-0-0-0-0-0-0-0-0-0---|
 B|-0-0-0-0-0-0-0-0-0-0-0-0-0-0-0-0-0-0-0-0---|

PM| - - - - - - - - - - - - - - - - - - - -

Interlude Part 3

C#|-------------------------------------------|
F#|-------------------------------------------|
 E|-------------------------------------------|
 b|-------------------------------------------|
F#|-000000000000000000000000000000000000000---|
 B|-000000000000000000000000000000000000000---|

PM| ---------------------------------------

Breakdown

C#|-----------------------------------------------------------|
F#|-----------------------------------------------------------|
 E|-----------------------------------------------------------|
 b|-----------------------------------------------------------|  x3
F#|-00-00-0-00-00-0-00-00000000-00-00-0-00-00-0-00-00000000---|
 B|-00-00-0-00-00-0-00-00000000-00-00-0-00-00-0-00-00000000---|

PM| -- -- - -- -- - -- -------- -- -- - -- -- - -- --------

C#|-----------------------------------|
F#|-----------------------------------|
 E|-----------------------------------|
 b|-----------------------------------| x3
F#|-00-00000000-00-00000000-----------|
 B|-00-00000000-00-0000000056765555---|

PM| -- -------- -- --------

Fin
Tap to rate this tab
# A B C D E F G H I J K L M N O P Q R S T U V W X Y Z