Song name
# A B C D E F G H I J K L M N O P Q R S T U V W X Y Z

Misc Unsigned Bands - Brian Joo - Tears Run Dry tab

-------------------------------------------------------------------------------
			     Tears Run Dry - Brian Joo
-------------------------------------------------------------------------------
Tabbed by:Moldycheeseface
Email: debrahim@rocketmail.com

Tuning:Standard
Capo 2 Chords: A2,E, C#m,B
e|-----------------------------------------------------------------|
B|----------------------------------5------------0-----------------|
G|-----2/4/2-1--------2p1--------6----6--------4---4---------------|
D|---2--------------2-----2----6--------6----4-------4-------------|
A|-0--------------2----------4-------------2-----------------------|
E|--------------0--------------------------------------------------|

Note:This is my first tab I've ever posted so I hope I did okay.This is what is played 
the whole song except for the bridge which im still trying to figure out so I hope it helps.
Tap to rate this tab
# A B C D E F G H I J K L M N O P Q R S T U V W X Y Z