Song name
# A B C D E F G H I J K L M N O P Q R S T U V W X Y Z

Misc Unsigned Bands - Cruxial Intent - Oxygen tab

THIS IS NOT A REALSED SONG BY ANY SIGNED BAND THIS IS A SONG WRITTEN BY CRUXIAL INTENT 
CRUXIAL INTENT
h= hammer on
/= slide
p.m...= palm mute part with dots over it
repeat verse 1 once
repeat verse 2 once
repeat verse 3 once

Intro
E----------------------------------------------------------------------------|
A---------------------------------------------5--5---------------------------|
D--5h7h5----5h7h5------5h7h5----------7--7-----------------------------------|
G-----------5-----------7~----------5h7~------------5h7~---------------------|
B----------------------------------------------------------------------------|
e----------------------------------------------------------------------------|

Verse 1
E----------------------------------------------------------------------------|
A----------------------------------------------------------------------------|
D----5--7-----------------7-6------3/7----7h9--------------------------------|
G---------5-7--7--6--5--------------------------7--9-9----9--7--5--3---------|
B----------------------------------------------------------------------------|
e----------------------------------------------------------------------------|

Verse 2
E----7----5---3----7---5---3-------------------------------------------------|
A----7----5---3----7---5---3------5---5---7---7---3--------------------------|
D---------------------------------7---7---9---9--5---------------------------|
G-----------------------------------------------------5h7^5------------------|
B----------------------------------------------------------------------------|
e----------------------------------------------------------------------------|

Chorus
p.m..................
E----7---7------7---7--------------------------------------------------------|
A----9---9------9---9--------------------------------------------------------|
D----------------------------------------------------------------------------|
G------------------------5/8--5/7---5/7----5h7----5--3---1-------------------|
B----------------------------------------------------------------------------|
e----------------------------------------------------------------------------|

Verse 3
E---------------------------------------------------------------------------|
A----------------------------------5---5------------------------------------|
D----------------------------------7---7------------------------------------|
G-------7h9/11---9---5----7---------------7h9/11--9--5--7-------------------|
B---------------------------------------------------------------------------|
e---------------------------------------------------------------------------|

Chorus
p.m..................
E----7---7------7---7-------------------------------------------------------|
A----9---9------9---9-------------------------------------------------------|
D---------------------------------------------------------------------------|
G------------------------5/8--5/7---5/7----5h7----5--3---1------------------|
B---------------------------------------------------------------------------|
e---------------------------------------------------------------------------|

Solo
E--------------------------------------------------------------------------|
A--------------------------------------------------------------------------|
D-------------------------------------------14-----------------------------|
G--7-9-7-9-7--9-----------------14--13--12----12h14--12h14^-----------9--7-|
B---------------7--9^/12---14^------------------------------------9-8-7----|
e----------------------------------------------------------9-7-9-----------|

Verse 1
E----------------------------------------------------------------------------|
A----------------------------------------------------------------------------|
D----5--7-----------------7-6------3/7----7h9--------------------------------|
G----------5-7--7--6--5------------------------7--9-9----9--7--5--3----------|
B----------------------------------------------------------------------------|
e----------------------------------------------------------------------------|
Tap to rate this tab
# A B C D E F G H I J K L M N O P Q R S T U V W X Y Z