Song name
# A B C D E F G H I J K L M N O P Q R S T U V W X Y Z

Misc Unsigned Bands - The Happy Geckos - Our Dictator tab

----------------------------------------------------------------------------
		   Our Dic(Tator) - The Happy Geckos
----------------------------------------------------------------------------
Tabbed by:     Trivium_Child
Email:         Trivium_Child@live.ca
Bands Website: http://www.myspace.com/deathtoyomamma
               http://www.itdontmattercauseyoullneverfindit1.webs.com
               !WARNING! Both sites contain explicit sexual and violent    
content not meant for small children or soccer moms!

Tuning: BEADGB

Main Riff

e|-------------------------------------------------------------------------|
B|-------------------------------------------------------------------------|
G|-------------------------------------------------------------------------|
D|-------------------------------------------------------------------------|
A|------------210----------------------------------------------------------|
E|-00003-2-012---32-00003-2-000-000----------------------------------------|
   ....    ...      ....    ... ...

Main Riff Harmony

e|-------------------------------------------------------------------------|
B|-------------------------------------------------------------------------|
G|-------------------------------------------------------------------------|
D|------------432----------------------------------------------------------|
A|-22225-4-234---54-22225-4-222-222----------------------------------------|
E|-------------------------------------------------------------------------|


Interlude

       P.H.
e|-----------|
B|-----------|    
G|-----------|
D|-----------|
A|-----2b5r2-|
E|-1---------|


Interlude Harmony
       P.H.
e|-----------|
B|-----------|
G|-----------|
D|-----4b7r4-|
A|-3---------|
E|-----------|

Chorus

             P.H.     
e|-----------------------------|
B|-----------------------------|
G|-----------------------------|
D|-2---------------2---------3-|
A|-2-------2-1-----2-------2-3-|
E|-0-0h2h3---------0-0h2h3---1-|


Lead

          x4         x4
e|-t19p15p12-|-t18p15p12-|-t19p15p12t19p15p12-|
B|-----------|-----------|--------------------|
G|-----------|-----------|--------------------|
D|-----------|-----------|--------------------|
A|-----------|-----------|--------------------|
E|-----------|-----------|--------------------|

Bridge

e|-----------------------------------------|
B|-----------------------------------------|
G|-----------------------------------------|
D|-----------------------------------------|
A|-----------------------------------------|
E|-000-000-000-000-000-000-000-000-000-etc-|


************************************

| /    Slide up
| \    Slide down
| h    Hammer-on
| p    Pull-off
| ~    Vibrato
| P.H. Pinch Harmonic
| x    Mute note
| b    Bend
| pb   Pre-bend
| br   Bend release
| pbr  Pre-bend release
| brb  Bend release bend
| t    Tap
| .    Palm mute
************************************

Tap to rate this tab
 
# A B C D E F G H I J K L M N O P Q R S T U V W X Y Z