Song name
# A B C D E F G H I J K L M N O P Q R S T U V W X Y Z

Misc Unsigned Bands - Dinosaurs From Antarctica - Hornet Rapers Please Dont Sting Me chords

This is a song by the band i'm in, we have yet to record it.. 


Intro
e|-------------------------------------------------|
B|--------7-5-------7-5--5-7-------5-7-------------|
G|------6---------6----------6---------6-----------|
D|----7---------7--------------7---------7---------|
A|--7---------7------------------7---------7-------|
E|-------------------------------------------------|

VERSE:
e|---------------------------------------------------------------|
B|---------------------------------------------------------------|
G|-9-9-9-9-9-9--6-6-6-6-6-6--7-7-7-7-7-7--4-4-4-4-4-4------------|
D|-9-9-9-9-9-9--7-7-7-7-7-7--7-7-7-7-7-7--5-5-5-5-5-5---[X3]-----|
A|-7-7-7-7-7-7--7-7-7-7-7-7--5-5-5-5-5-5--5-5-5-5-5-5------------|
E|--------------5-5-5-5-5-5---------------3-3-3-3-3-3------------|

CHORUS:
e|--------------------------------------------------------------------|
B|--------------------------------------------------------------------|
G|-9--6-6----9--5-5---------------------------------------------------|
D|-9--6-6----9--5-5---[X4]--------------------------------------------|
A|-7--4-4----7--3-3---------------------------------------------------|
E|--------------------------------------------------------------------|

REPEAT VERSE

REPEAT CHORUS

BRIDGE:
e|-------------------------------------------------------------------|
B|--------7-5-------7-5--5-7-------5-7--------------7-5--5-7---------|
G|------6---------6----------6---------6----------6----------6-------|
D|----7---------7--------------7---------7------7--------------7-----|
A|--7---------7------------------7---------7--7------------------7---|
E|-------------------------------------------------------------------|

e|------------------------------------------------------------------------|
B|--------7-5-5-7-------------7-5--5-7-------------7-5--5-7---------------|
G|------6---------6---------6----------6---------6----------6-------------|
D|----7-------------7-----7--------------7-----7--------------7---------7-|
A|--7-----------------7-7------------------7-7------------------7-7-7-7---|
E|------------------------------------------------------------------------|

REPEAT CHORUS 

REPEAT VERSE 

REPEAT CHORUS

REPEAT VERSE

REPEAT CHORUS

ENDING: 
e|---------------------------------------------------------------5-----|
B|-----------------------7-5-------7-5-5-7-------5-7-------------5-----|
G|-9-9-9-9-9-9--6------6---------6---------6---------6-----------6-----|
D|-9-9-9-9-9-9--7----7---------7-------------7---------7---------7-----|
A|-7-7-7-7-7-7--7--7---------7-----------------7---------7-7-7-7-7-----|
E|--------------5------------------------------------------------5-----|

Lyrics:
It buzzes and it flies
It goes away and hides inside
It rapes its little beastie bee
Please dont come out to sting rape me. 
Bzzz Bzzz 
Aaaah Aaaah 
Bzzz Bzzz
Aaaah Aaaah 
Honeycomb and sticky sweet, 
Swat! Are you trying to go down by me? 
All around and in and out, 
Ensuing chase to sting rape me. 
Bzzz Bzzz 
Aaaah Aaaah 
Bzzz Bzzz
Aaaah Aaaah 
Pooh Bear Once Said, 
I'm just a little black rain cloud 
Hovering over the honey tree, 
But he was never sting raped by a little beastie bee. 
Bzzz Bzzz
Aaaah Aaaah 
Bzzz Bzzz
Aaaah Aaaah 
It puts the lotion on its stripes, 
Then steals the hornets poodle, 
Escaping quickly, flies away, 
From hornet rapers stingey noodle. 
Bzzz Bzzz 
Aaaah Aaaah 
Bzzz Bzzz
Aaaah Aaaah 
Eat this, drink it, take it all. 
Bee-otch i'll squirt it in your eye. 
Sting rape is not fore me. 
This time you're gonna die. 
Bzzz Bzzz 
Aaaah Aaaah 
Bzzz Bzzz
Aaaah Aaaah 
Tap to rate this tab
 
# A B C D E F G H I J K L M N O P Q R S T U V W X Y Z