Song name
# A B C D E F G H I J K L M N O P Q R S T U V W X Y Z

Misc Unsigned Bands - Give Me Some Sunshine - 3 Idiots tab

 Chords used in the song:

C    032010
FBar 133211
GBar 355433

Sari umra hum mar-mar ke jee liye
Ek pal to ab hume jeene do jeene do(Slide 7\3 on 5th string)

| C F | C F | C F | C G |
| C F | C F | C F | C G | (WITH BEATS)


The F & G chords above should be struck only at the last stroke.
Strumming 
(C)Sari umra (G)hum, mar-(C)mar ke jee li(G)ye
Ek (C)pal to ab hu(G)me jee(F)ne do, jeene (G)do
(C)Sari umra (G)hum, mar-(C)mar ke jee li(G)ye
Ek (C)pal to ab hu(G)me jee(F)ne do, jeene (G)do

Strumming 1
(C)Na na na-na(F) na-na (F)na na na-na(G)
(C)Na na na-na(F) na na (F)na na na na-(G)naaa..

Strumming 2
(C)Give me some (G)sunshine
(C)Give me some (G)rain
(C)Give me (G)another chance
i wanna (F)grow up once a(G)gain x2

Strumming 1
(C)
(F)Kandho ko (C)kitabo ke bojh ne jhukaya(F)
Rishwat(C) dena to khud papa ne sikhaya(F)
(C)99% marks (F)laoge to (G)ghadi, (C)warna chadi (F)
(C)likh-likh kar padha (F)hateli par
aplha, (C)beta, gamma ka(F) chala
(C)conc. H2SO4(F) ne pura, (C)pura bach(F)pan jala dala(G)

Strumming 1
(C)bachpan to ga(G)ya, ja(C)wani bhi ga(G)yi
ek (C)pal to ab hu(G)me jee(F)ne do jeene (G)do

Chorus
(C)bachpan to ga(G)ya, ja(C)wani bhi ga(G)yi
ek (C)pal to ab hu(G)me jee(F)ne do jeene (G)do oooooo

Lead Guitar solo:

e|----------------------------------|
B|----------------------------------|
G|---6--6--------6------6-8--8b(9)--|
D|---6--6---6h8----6h8--------------|
A|---4--4---------------------------|
E|----------------------------------|

e|--------------------------|
B|--------------------------|
G|-6h8p-6-------6-------6---|
D|--------8-6-8----6h8------|
A|--------------------------|
E|--------------------------|

e|-------------------11------------14-14--16--|
B|------------11h14------11--13/16------------|
G|--------10h13-------------------------------|
D|--11h13-------------------------------------|
A|--------------------------------------------|
E|--------------------------------------------|

e|---------------16--18--16b(18)--16b-(18)--13--15--|
B|16b(18)--16-18------------------------------------|
G|--------------------------------------------------|
D|--------------------------------------------------|
A|--------------------------------------------------|
E|--------------------------------------------------|

e|13--15--16b(18)--16b(18) --13--15--13-15----|
B|--------------------------------------------|
G|--------------------------------------------|
D|--------------------------------------------|
A|--------------------------------------------|
E|--------------------------------------------|

e|--------------------------------------------------------|
B|--16b(18)--16b(18)---14--16--14-------------------------|
G|--------------------------------15--13------------------|
D|--------------------------------------------13h15--13---|
A|--------------------------------------------------------|
E|--------------------------------------------------------|

Melody (Piano)

E ---------------------------------------- |
B -13-13-10-11---11-10-13-13-10-11-------- |
G ---------------------------------------- |
D ---------------------------------------- |
A ---------------------------------------- |
E ---------------------------------------- |

E ---------------------------------------- |
B --11h13-13-10-11---11-10-13-12-13-13---- |
G -------------------------------------14- |
D ---------------------------------------- |
A ---------------------------------------- |
E ---------------------------------------- |

(C)Sari umra (G)hum, mar-(C)mar ke jee li(G)ye
Ek (C)pal to ab hu(G)me jee(F)ne do, jeene (G)do

(C)Na na na-na(F) na-na (F)na na na-na(G)
(C)Na na na-na(F) na na (F)na na na na-(G)naaa..

(C)Give me some (G)sunshine
(C)Give me some (G)rain
(C)Give me (G)another chance
i wanna (F)grow up once a(G)gain x2

{No strumming}
Na na na-na na-na na na na-na
Na na na-na na na na na na na-naaa..

{Strumming}
(C)Na na na-na(F) na-na (F)na na na-na(G)
(C)Na na na-na(F) na na (F)na na na na-(G)naaa..
Tap to rate this tab
# A B C D E F G H I J K L M N O P Q R S T U V W X Y Z