Song name
# A B C D E F G H I J K L M N O P Q R S T U V W X Y Z

Misc Unsigned Bands - Stone Senses - Broken Crown tab

Intro:
e|--------------------------------------------------------|
B|--------------------------------------------------------|
G|--------------------------------------------------------|
D|-------7-10--------------------------------------5----5-|
A|--8--8------------7-10---------12-11-10-8------7----7---|
E|-------------8--8-------10--10------------6--6----------|

e|--------------------------------------------------------|
B|--------------------------------------------------------|
G|--------------------------------------------------------|
D|--------------------------------------------------------|
A|--8--8---------------7-10--------12-11-10-8-------------|
E|------5-5/6-8-8-8--8------10--10------------6-6--5-3-5--|

Verses:
e|--8----8----10---6--|
B|--10---8----10---6--|
G|--10---9----10---7--|
D|--10---10---12---8--|
A|--8----10---12---8--|
E|-------8----10---6--|

or

e|--8----12---13---10--|
B|--10---13---15---11--|
G|--10---12---14---10--|
D|--10---10---12---8---|
A|--8------------------|
E|---------------------|

| /  slide up
| \  slide down
| h  hammer-on
| p  pull-off
| ~  vibrato
| +  harmonic
| x  Mute note
=========================================================================
Tap to rate this tab
# A B C D E F G H I J K L M N O P Q R S T U V W X Y Z