Song name
# A B C D E F G H I J K L M N O P Q R S T U V W X Y Z

Misc Unsigned Bands - Vicar - Revelation Song tab

-------------------------------------------------------------------------------
			    Revelation Song - Vicar
-------------------------------------------------------------------------------
Tabbed by: RockforJesus

Tuning:Standard

Verses:

D Am C G

Chorus (Power Chords):

D Am C G

Solo 1
e|--------------------------------------------------------------------------|
B|--------------------------------------------------------------------------|
G|11~-11b12rb11-9~-7-9-7-5-7-5-4-5-4-2-0-0-2-4-5-4-5-7-5-4-5-4-2~-----------|
D|--------------------------------------------------------------------------|
A|--------------------------------------------------------------------------|
E|--------------------------------------------------------------------------|

Solo 2, 3
e|------------------------------------------------------------------15-17---|
B|------------------------------------------------------------15-17---------|
G|11~-11b12rb11-9~-7-9-7-5-7-5-4-5-4-2-0-0-2-4-5-4-5-7-5-4~-0---------------|
D|--------------------------------------------------------------------------|
A|--------------------------------------------------------------------------|
E|--------------------------------------------------------------------------|

e|17b19rb17-15~------------------17b19rb17-15~------------------------------|
B|--------------15-17b18rb17-15~---------------15-17b18rb17-15~//////-------|
G|--------------------------------------------------------------------------|
D|--------------------------------------------------------------------------|
A|--------------------------------------------------------------------------|
E|--------------------------------------------------------------------------|

And thats about it hope you enjoy!

************************************

| /   slide up
| \   slide down
| h   hammer-on
| p   pull-off
| ~   vibrato
| +   harmonic
| x   Mute note
| b   Bend
| pb  Pre-bend
| br  Bend release
| pbr Pre-bend release
| brb Bend release bend

************************************
Tap to rate this tab
# A B C D E F G H I J K L M N O P Q R S T U V W X Y Z