Song name
# A B C D E F G H I J K L M N O P Q R S T U V W X Y Z

Misc Unsigned Bands - Data Select Party - Ultra Swing tab

----------------------------------------------------------------------------
			     ULTRA SWING - Data Select Party
----------------------------------------------------------------------------
Great band. Shame they split up.

Tabbed by: Dave
Tuning: Standard

Guitar 1

Intro and Verse
e|------------------------------------------------------------|
B|------------------------------------------------------------|
G|------------------------------------------------------------|
D|-------7-7--------------------------7-7---12-12-12----------|
A|-8-8-8-------10-10-10---------8-8-8----------------10-10----|
E|----------------------10-10---------------------------------|

Chorus, rest

Bridge
X2
e|-------------------------------------------------------------|
B|-------------------------------------------------------------|
G|----------------------------------------------14-12----12----|
D|-12---12-10-10-----8-/-10-10----10-8-5--------------14-------|
A|-12---12-10-10-----8-/-10-10----10-8-5-----------------------|
E|-10---10-8--8------6-/-8--8------8-6-3-----------------------|

e|---------------------------------------------------|
B|---------------------------------------------------|
G|-14-12--------------141414-12----------------------|
D|-------14-12----12------------14-12----12----------|
A|-------------15---------------------15-------------|
E|---------------------------------------------------|

e|-------------------------------------------------|
B|-------------------------------------------------|
G|-14-12--------------141414-12----12-14-12----12--|
D|-------14-12----12------------14----------14-----|
A|-------------15----------------------------------|
E|-------------------------------------------------|

e|---------------------------------------------------|
B|---------------------------------------------------|
G|-14-12--------------141414-12----------------------|
D|-------14-12----12------------14-12----12----------|
A|-------------15---------------------15-------------|
E|---------------------------------------------------|

e|-------------------------------------------------|
B|-------------------------------------------------|
G|-14-12--------------141414-12----12-14-12----12--|
D|-------14-12----12------------14----------14-----|
A|-------------15----------------------------------|
E|-------------------------------------------------|

Before last chorus (palm muted)

e|-----------------------------------------------|
B|-----------17-17--15-15-15---------------------|
G|-17-17-17--14-14--14-14-14--14-14--------------|
D|-15-15-15-------------------12-12--------------|
A|-----------------------------------------------|
E|-----------------------------------------------|

e|------------------17-17-17--15-15--------------|
B|-----------17-17--15-15-15--15-15--------------|
G|-17-17-17--14-14-------------------------------|
D|-15-15-15--------------------------------------|
A|-----------------------------------------------|
E|-----------------------------------------------|

e|-----------------------------------------------|
B|-----------17-17--15-15-15---------------------|
G|-17-17-17--14-14--14-14-14--14-14--------------|
D|-15-15-15-------------------12-12--------------|
A|-----------------------------------------------|
E|-----------------------------------------------|

e|-----------------------------------------------|
B|-----------17-17-------------------------------|
G|-17-17-17--14-14-------------------------------|
D|-15-15-15--------------------------------------|
A|-----------------------------------------------|
E|-----------------------------------------------|

Last chorus, repeat chords from bridge.

End
e|-----------------------------------------------|
B|-----------------------------------------------|
G|-----------------------------------------------|
D|-12----12----12----12--------------------------|
A|-12----12----12----12--------------------------|
E|-10----10----10----10--------------------------|

Guitar 2

Intro and verse
e|-------------------------------------------------------------------------|
B|-------13-/17-15---------13----13---------13-/17-15------15-17----13-----|
G|-12-14-------------12-14----14------12-14-------------12-------14--------|
D|-------------------------------------------------------------------------|
A|-------------------------------------------------------------------------|
E|-------------------------------------------------------------------------|

Chorus, rest

Bridge
X2
e|-------------------------------------------------------------|
B|-------------------------------------------------------------|
G|----------------------------------------------14-12----12----|
D|-12---12-10-10-----8-/-10-10----10-8-5--------------14-------|
A|-12---12-10-10-----8-/-10-10----10-8-5-----------------------|
E|-10---10--8--8-----6-/-8--8------8-6-3-----------------------|

e|-17-15----------------171717-15------------------------------|
B|-------17-15----15--------------17-15----15------------------|
G|-------------17-----------------------17---------------------|
D|-------------------------------------------------------------|
A|-------------------------------------------------------------|
E|-------------------------------------------------------------|

e|-17-15----------------171717-15----15-17-15----15-----------------|
B|-------17-15----15--------------15----------15--------------------|
G|-------------17---------------------------------------------------|
D|------------------------------------------------------------------|
A|------------------------------------------------------------------|
E|------------------------------------------------------------------|

Rest while Guitar 1 plays then, with effects:
e|-----------------------------------------------|
B|-13----13--------------------------------------|
G|----14----14-12--------------------------------|
D|-----------------------------------------------|
A|-----------------------------------------------|
E|-----------------------------------------------|

Play intro/verse riff through last chorus

End
e|-----------------------------------------------------------|
B|-13----13---------13----13--------13----13-----------------|
G|----14----14-12------14----14-12-----14----14-12-----------|
D|-----------------------------------------------------12----|
A|-----------------------------------------------------12----|
E|-----------------------------------------------------10----|


************************************

| /   slide up
| \   slide down
| h   hammer-on
| p   pull-off
| ~   vibrato
| +   harmonic
| x   Mute note
| b   Bend
| pb  Pre-bend
| br  Bend release
| pbr Pre-bend release
| brb Bend release bend

************************************
Tap to rate this tab
 
# A B C D E F G H I J K L M N O P Q R S T U V W X Y Z