Song name
# A B C D E F G H I J K L M N O P Q R S T U V W X Y Z

Misc Unsigned Bands - Tainted Word - Killing Your Legacy tab

Ok so I wrote this song for my band but I still haven't showed it to them yet. Feedback 
be appreciated (As if anyone reads this anyways.)

Tuning: Standard

Riff I. Slow. Palm muted.
e|--------------------------------------------------------------------------------|
B|--------------------------------------------------------------------------------|
G|--------------------------------------------------------------------------------|
D|--7------5-----3-----5----------------------------------------------------------|
A|-7--7---5--5--3--3--5--5--------------------------------------------------------|
E|5-----3-----1-----3-------------------------------------------------------------| X2


Riff II
e|----------------------------------------|
B|----------------------------------------|
G|----------------------------------------|
D|-7-7-7-77--5-5-5-55--3-3-3-33--5-5-5-55-|
A|-7-7-7-77--5-5-5-55--3-3-3-33--5-5-5-55-|
E|-5-5-5-55--3-3-3-33--1-1-1-11--3-3-3-33-| X2

Riff III
e|----------------------------------------|
B|----------------------------------------|
G|----------------------------------------|
D|-7-77--777-5-55-555--3-33-333--5-55-555-|
A|-7-77--777-5-55-555--3-33-333--5-55-555-|
E|-5-55--555-3-33-333--1-11-111--3-33-333-| X2

Riff I Modified / Pre-Chorus
(Same notes, just faster with no palm muting.)

Small Break Riff
e|-------------------|
B|-------------------|
G|-------------------|
D|-3---3-2---22-44-5-|
A|-3---3-2---22-44-5-|
E|-------------------|

Riff IV / Chorus
e|-------------------------------------|
B|-------------------------------------|
G|-9-9-999--7-7-7777--4-4-444-5-5-5555-|
D|-x-x-xxx--x-x-xxxx--x-x-xxx-x-x-xxxx-|
A|-7-7-777--5-5-5555--2-2-222-3-3-3333-|
E|-------------------------------------|

And that's all I got so far. I'm gonna let my guitarist change it up maybe, and add a 
over a chorus. After all, i'm only the bassist. :P

TAINTED WORD MOTHER F*CKER
Tap to rate this tab
 
# A B C D E F G H I J K L M N O P Q R S T U V W X Y Z