Song name
# A B C D E F G H I J K L M N O P Q R S T U V W X Y Z

Misc Unsigned Bands - Dancell - Cordial Lane tab

I'm about 99.9% positive this is how to play it.
If you have any corrections, let me know.
This is all one guitar, no lead guitar and rhythm guitar.
the numbers above a power chord indicates the strumming.
Also, the 10's aren't ones and zeros, they're tens.
Every time you play the pre-chorus in the 2nd time, it can be 9's OR 14's, your choice. :)
Optional stuff: delay pedal

Intro pt.1(clean, little delay):
E|------------------------------------------------------------|
B|------------------------------------------------------------|
G|-------4-4--5-5--0-0-------4-4--5-5--0-0--------------------|
D|--2-2-----------------2-2-----------------------------------|
A|---0-0------------------------------------------------------|
D|------------------------------------------------------------|
     . .

E|------------------------------------------------------------|
B|------------------------------------------------------------|
G|------------------------------------------------------------|
D|-----2--2s5--5--5--5h7--------------------------------------|
A|--0---------------------------------------------------------|
D|------------------------------------------------------------|


Intro pt.2(distorted, no delay):
E|------------------------------------------------------------|
B|--------x16-------------x16-------------x16----------x13----|
G|------------------------------------------------------------| x2
D|--10--------------3---------------7--------------3----------|
A|--10--------------3---------------7--------------3----------|
D|--10--------------3---------------7--------------3----------|


Verses(distorted, no delay):
"Let's Take This..."
E|---------------------------------------------------------------|
B|----------------------x2---------------------------------------|
G|---------------------------------------------------------------|
D|--1010101010--10-10~-------77777--7-7~-------33333--3-3~-------|
A|--1010101010--10-10~-------77777--7-7~-------33333--3-3~-------|
D|--1010101010--10-10~-------77777--7-7~-------33333--3-3~-------|
                .                   .                 .

We Were So Young Then..."
E|--------------------------------------------------------------------------------|
B|----------------------x2--------------------------------------------------------|
G|--------------------------------------------------------------------------------|
D|--1010101010--10-10~-------77-7-777-7-777-7-777-7~--33-3-333-3-333-3-333-3~-----|
A|--1010101010--10-10~-------77-7-777-7-777-7-777-7~--33-3-333-3-333-3-333-3~-----|
D|--1010101010--10-10~-------77-7-777-7-777-7-777-7~--33-3-333-3-333-3-333-3~-----|
                .            ..   ...   ...   ...     ..   ...   ...   ... 

Pre-chorus(distorted, no delay):
"Cause I Can't Take This Heat..."
E|------------------------------------------------------------------------------|
B|------------------------------------------------------------------------------|
G|------------------------------------------------------------------------------|
D|--10-10-10-10s12-12-12-12-12s9-9-9-9-9s12-12-12-12-12s7-7-7-7-7-7-7-7-7s3-----|
A|--10-10-10-10s12-12-12-12-12s9-9-9-9-9s12-12-12-12-12s7-7-7-7-7-7-7-7-7s3-----|
D|--10-10-10-10s12-12-12-12-12s9-9-9-9-9s12-12-12-12-12s7-7-7-7-7-7-7-7-7s3-----|

"I Can't Take This Heat..."
E|------------------------------------------------------------------------------------|
B|------------------------------------------------------------------------------------|
G|------------------------------------------------------------------------------------|
D|--10-10-10-10s12-12-12-12-12s14-14-14-14-14s12-12-12-12-12s7-7-7-7-7-7-7-7-7-3~-----|
A|--10-10-10-10s12-12-12-12-12s14-14-14-14-14s12-12-12-12-12s7-7-7-7-7-7-7-7-7-3~-----|
D|--10-10-10-10s12-12-12-12-12s14-14-14-14-14s12-12-12-12-12s7-7-7-7-7-7-7-7-7-3~-----|


Chorus:(distorted, no delay):
"Wake Up, Wake Up Beside Me..."
E|---------------------------------------------------------------------------|
B|---------------------------------------------------------------------------|
G|--------x16----------x16----------x16--------------------------------------| x2
D|--10------------3------------7------------33-33-33-33~-3-3-----------------|
A|--10------------3------------7------------33-33-33-33~-3-3-----------------|
D|--10------------3------------7------------33-33-33-33~-3-3-----------------|

Repeat Intro pt.2

Repeat Verse and Pre-Chorus

Repeat Chorus

Solo(distorted, delay optional):
E|------------------------------------------------------------|
B|------------------------------------------------------------|
G|------------------------------------------------------------| x2
D|------------------------------------------------------------|
A|-------3s7-3-3s7-3-3s2-3-0-3s7-3-3s2-3---2-2s3-0~-----------|
D|------------------------------------------------------------|


Bridge(distorted, no delay):
"Living Life In Florida..."
E|----------------------------------------------------------------------|
B|----------------------------------------------------------------------|
G|---9--9--9--9--9--9--9--9--2-2-2-2-2-2-2-2-5-5-5-5-5-5-5-5--2~--------|
D|----10-10-10-10-10-10-10-10-3-3-3-3-3-3-3-3-7-7-7-7-7-7-7-7-3~--------|
A|----------------------------------------------------------------------|
D|----------------------------------------------------------------------|
     .. .. .. .. .. .. .. .. ................................ .

Outro(distorted, no delay):
"Wake Up, Wake Up Beside Me..."
E|------------------------------------------------------------|
B|--------x16-------------x16-------------x16----------x13----|
G|------------------------------------------------------------| x2
D|--10--------------3---------------7--------------3----------|
A|--10--------------3---------------7--------------3----------|
D|--10--------------3---------------7--------------3----------|
Tap to rate this tab
 
# A B C D E F G H I J K L M N O P Q R S T U V W X Y Z