Song name
# A B C D E F G H I J K L M N O P Q R S T U V W X Y Z

Misc Unsigned Bands - Bludgeoned To Excess - The Hostile tab

-----------------------------------------------------------------------------
			The Hostile - Bludgeoned to Excess
-----------------------------------------------------------------------------
Tabbed by: joebrownie69
Email: joebrownie69@gmail.com

Tuning: Drop B

e|---5~------5~------5~-----------------------------------------------------|
B|----3~------3~------3~----------------------------------------------------|
G|-----2~------2~------2~---------------------------------------------------|
D|--------------------------------------------------------------------------|
A|-0~-----0~------0~-------5~--3-2--[-[-2-1-0-2-1-0-2-1-0-2-1-0--------][x4]|
E|-0~-----0~------0~-------5~--3-2--[-[-2-1-0-2-1-0-2-1-0-2-1-0-0-0-0-0]----|

e|--------------------------------------------------------------------------|
B|--------------------------------------------------------------------------|
G|--------------------------------------------------------------------------|
D|--------------------------------------x2----------------------------------|
A|-[1-1-0-1-1-0-1-1-0-1-1-1-------]-[x4]------------------------------------|
E|-[1-1-0-1-1-0-1-1-0-1-1-1-0-0-0-]-----------------------------------------|

e|---5-------5-------5------------------------------------------------------|
B|----3-------3-------3-----------------------------------------------------|
G|-----2-------2-------2----------------------------------------------------|
D|--------------------------------------------------------------------------|
A|-0~-----0~------0~------5~-3-2--------------------------------------------|
E|-0~-----0~------0~------5~-3-2--------------------------------------------|

e|--------------------------------------------------------------------------|
B|--------------------------------------------------------------------------|
G|--------------------------------------------------------------------------|
D|--------------------------------------------------------------------------|
A|-[-2-1-0-2-1-0-2-1-0-2-1-0--8-8-8-8---2-1-0-2-1-0-2-1-0-2-1-0--7-7-7-7----|
E|-[-2-1-0-2-1-0-2-1-0-2-1-0------------2-1-0-2-1-0-2-1-0-2-1-0-------------|

e|--------------------------------------------------------------------------|
B|--------------------------------------------------------------------------|
G|--------------------------------------------------------------------------|
D|----------------------------------------------------------------------x2--|
A|-2-1-0-2-1-0-2-1-0-2-1-0--8-8-8-8---1-1-0-1-1-0-1-1----------5-5-5-5-]----|
E|-2-1-0-2-1-0-2-1-0-2-1-0------------1-1-0-1-1-0-1-1-0-0-0-0----------]----|

e|--------------------------------------------------------------------------|
B|--------------------------------------------------------------------------|
G|--------------------------------------------------------------------------|
D|-------------------------------------------------x3-----------------------|
A|-[555555-77-888888-77-55-----------------------]--------------------------|
E|-[-----------------------8888888888-5555555555-]--------------------------|

e|--------------------------------------------------------------------------|
B|--------------------------------------------------------------------------|
G|--------------------------------------------------------------------------|
D|--------------------------------------------------------------------------|
A|--555555-77-888888-77-55------------------------2-1-0-2-1-0---------------|
E|-------------------------8888888888-7777777777--2-1-0-2-1-0-0-------------|

e|--------------------------------------------------------------------------|
B|--------------------------------------------------------------------------|
G|--------------------------------------------------------------------------|
D|--------------------------------------------------------------------------|
A|-[-2-1-0-2-1-0-2-1-0-2-1-0--8-8-8-8---2-1-0-2-1-0-2-1-0-2-1-0--7-7-7-7----|
E|-[-2-1-0-2-1-0-2-1-0-2-1-0------------2-1-0-2-1-0-2-1-0-2-1-0-------------|

e|--------------------------------------------------------------------------|
B|--------------------------------------------------------------------------|
G|--------------------------------------------------------------------------|
D|----------------------------------------------------------------------x2--|
A|-2-1-0-2-1-0-2-1-0-2-1-0--8-8-8-8---1-1-0-1-1-0-1-1----------5-5-5-5-]----|
E|-2-1-0-2-1-0-2-1-0-2-1-0------------1-1-0-1-1-0-1-1-0-0-0-0----------]----

e|[--5~--------7~-------9~------------]-x4----------------------------------|
B|----3~--------7~-------7~-------------------------------------------------|
G|-----2~--------4~-------6~------------------------------------------------|
D|--------------------------------------------------------------------------|
A|-0~------2~--------3~--------5~--3-2----[2-3-1-2-3-1-2-3-1-2-3-1----------|
E|-0~------2~--------3~--------5~--3-2----[2-3-1-2-3-1-2-3-1-2-3-1-0-0-0-0--|

e|--------------------------------------------------------------------------|
B|--------------------------------------------------------------------------|
G|--------------------------------------------------------------------------|
D|--------------------------------------------------------------------------|
A|-2-3-1-2-3-1-2-3-1-2-3-1---------2-3-1-2-3-1-2-3-1-2-3-1-33333333---------|
E|-2-3-1-2-3-1-2-3-1-2-3-1-0-0-0-0-2-3-1-2-3-1-2-3-1-2-3-1------------------|

e|--------------------------------------------------------------------------|
B|--------------------------------------------------------------------------|
G|--------------------------------------------------------------------------|
D|----------------------------------x2--------------------------------------|
A|-2-3-1-2-3-1-2-3-1-2-3-1-----3*-]-----------------------------------------|
E|-2-3-1-2-3-1-2-3-1-2-3-1-0-0----]-----------------------------------------|

e|[--5~--------7~-------9~------------]-x2----------------------------------|
B|----3~--------7~-------7~-------------------------------------------------|
G|-----2~--------4~-------6~--------------play in background during solo----|
D|--------------------------------------------------------------------------|
A|-0~------2~--------3~--------5~--3-2--------------------------------------|
E|-0~------2~--------3~--------5~--3-2--------------------------------------|

  solo
e|--------------------------------------------------------------------------|
B|--------------------------------------------------------------------------|
G|-----------------------10-9-----------------------------------------------|
D|---------------------------12-11------------------------------------------|
A|-5h8/7h10/8h12/10h14------------12-11-8-7-5*------------------------------|
E|--------------------------------------------------------------------------|

e|----13h17p13-----------13h17p13----------15h19p15-------------------------|
B|---15-------15--------15-------15-------17-------17-----------------------|
G|--14---------14------14---------14-----16---------16----------------------|
D|-15-----------15----15-----------15---17-----------17---------------------|
A|17-------------16h17--------------17/19-------------18h19~~---------------|
E|--------------------------------------------------------------------------|
 Fade out
e|[----13h17p13-----------13h17p13----------15h19p15----------15h19p15----]-|
B|---15-------15--------15-------15-------17-------17-------17------17------|
G|--14---------14------14---------14-----16---------16-----16--------16-----|
D|-15-----------15----15-----------15---17-----------17---17----------17----|
A|17-------------16h17--------------17/19-------------18h19------------19~--|
E|--------------------------------------------------------------------------|

************************************

| /   slide up
| \   slide down
| h   hammer-on
| p   pull-off
| ~   vibrato
| *   harmonic
| x   Mute note
| b   Bend
| pb  Pre-bend
| br  Bend release
| pbr Pre-bend release
| brb Bend release bend
| [ ] Repeat

************************************
Tap to rate this tab
# A B C D E F G H I J K L M N O P Q R S T U V W X Y Z