Song name
# A B C D E F G H I J K L M N O P Q R S T U V W X Y Z

Misc Unsigned Bands - Michael Deakin - Slow Rus tab

Tabbed by: mchael deakin
Email: x2jays@gmail.com

Tuning:standard(E B G D A E)
each '-' equals a eightth of a bar/or half a beat(quaver)

e|1/3------|1/3------|1-3-5 7 5 3|------1|0 1 0 1 0----|
B|1/3------|1/3------|1-3-5 5 5 3|------1|1 1 1 1 1----|

e|0-0-0 0 0 0|0-0-0 0 0 0|3-3-3 3 3 3|2-----3 2|
B|1-1-1 1 1 1|1-1-1 1 1 1|3-3-3 3 3 3|3-----3 3|
G|2-2-2 2 2 2|0-0-0 0 0 0|0-0-0 0 0 0|2-----2 2|
D|3-3-3 3 3 3|2-2-2 2 2 2|0-0-0 0 0 0|0-----0 0|
A|-----------|3-3-3 3 3 3|2-2-2 2 2 2|---------|
E|-----------|-----------|3-3-3 3 3 3|---------|

e|0-0-0 0 0 0|0-0-0 0 0 0|3-3-3 3 3 3|3 3 3 3 2|
B|1-1-1 1 1 1|1-1-1 1 1 1|3-3-3 3 3 3|3 3 3 3 3|
G|2-2-2 2 2 2|0-0-0 0 0 0|0-0-0 0 0 0|------2 2|
D|3-3-3 3 3 3|2-2-2 2 2 2|0-0-0 0 0 0|------0 0|
A|-----------|3-3-3 3 3 3|2-2-2 2 2 2|---------|
E|-----------|-----------|3-3-3 3 3 3|---------|


e|0 0 0 0----|0 5 7 8 7 5 3 5|----3---|0--------|
B|5 5 5 5----|---------------|--------|-3 1 0---|
G|-----------|---------------|--------|------0 2| let the A (2nd fret G string)ring for 2 beats

e|----------|---------|-------0|3---5---|5 3 5 7 8 7 5-|0---0 0 0 0|
B|----------|---------|--0 1 3-|--------|--------------|----5 5 5 5|
G|----------|-------2-|-0------|--------|--------------|-----------|
D|----------|---------|--------|--------|--------------|-----------|
A|-----0 2 3|2 0------|--------|--------|--------------|-----------|
E|----3-----|---3-----|--------|--------|--------------|-----------|

e|3 3 3 3 2-|0-0-0 0 0 0|0-0-0 0 0 0|3-3-3 3 3 3|2 2 2 3 2 2 2-|
B|3 3 3 3 3-|1-1-1 1 1 1|1-1-1 1 1 1|3-3-3 3 3 3|3 3 3 3 3 3 3-|
G|------2 2-|2-2-2 2 2 2|0-0-0 0 0 0|0-0-0 0 0 0|2 2 2 2 2 2 2-|
D|------0 0-|3-3-3 3 3 3|2-2-2 2 2 2|0-0-0 0 0 0|0 0 0 0 0 0 0-|
A|----------|-----------|3-3-3 3 3 3|2-2-2 2 2 2|--------------|
E|----------|-----------|-----------|3-3-3 3 3 3|--------------|

e|0-0-0 0 0 0|0-0-0 0 0 0|3-3-3 3 3 3|2 2 2 3 2 2 2-|
B|1-1-1 1 1 1|1-1-1 1 1 1|3-3-3 3 3 3|3 3 3 3 3 3 3-|
G|2-2-2 2 2 2|0-0-0 0 0 0|0-0-0 0 0 0|2 2 2 2 2 2 2-|
D|3-3-3 3 3 3|2-2-2 2 2 2|0-0-0 0 0 0|0 0 0 0 0 0 0-|
A|-----------|3-3-3 3 3 3|2-2-2 2 2 2|--------------|
E|-----------|-----------|3-3-3 3 3 3|--------------|

e|2 2 2 3 2---|let D chord run 
B|3 3 3 3 3---|
G|2 2 2 2 2---|
D|0 0 0 0 0---|
A|------------|
E|------------|

hope it sounds good very simple but sounds good.
ENJOY Mike\x2jays
email me if any thing wrong.
rock on ppl
God Bless

************************************

/ slide up
Tap to rate this tab
 
# A B C D E F G H I J K L M N O P Q R S T U V W X Y Z