Song name
# A B C D E F G H I J K L M N O P Q R S T U V W X Y Z

Misc Unsigned Bands - Prezebla Mafija - The Tunnel tab

-------------------------------------------------------------------------------
			     The Tunnel - Prezebla Mafija
-------------------------------------------------------------------------------


Tuning: Standard E


Kitari

e|---------------------------------------------------------------------------|
B|---------------------------------------------------------------------------|
G|-----------------------------------------------4-4-4-4-4-4-4-4-4-4-4-4-4---|
D|-2-2~-------2-2~--------2-2~--------2-2~-------4-4-4-4-4-4-4-4-4-4-4-4-4---|Lead
A|-2-2~-------2-2~--------2-2~--------2-2~-------2-2-2-2-2-2-2-2-2-2-2-2-2---|
E|-0-0~-------0-0~--------0-0~--------0-0~-----------------------------------|

e|---------------------------------------------------------------------------|
B|---------------------------------------------------------------------------|
G|---------------------------------------------------------------------------|Lead
D|-2-2~-------2-2~--------2-2~--------2-2~---------2-2~---------2-2~---------|
A|-2-2~-------2-2~--------2-2~--------2-2~---------2-2~---------2-2~---------|
E|-0-0~-------0-0~--------0-0~--------0-0~---------0-0~---------0-0~---------|

e|---------------------------------------------------------------------------|
B|---------------------------------------------------------------------------|
G|--------4-4-x-3-3-3-x------------------------------------------------------|Riff
D|-2-2-2--4-4-x-3-3-3-x-5-5-5-5----------------------------------------------|
A|-2-2-2--2-2-x-1-1-1-x-5-5-5-5----------------------------------------------|
E|-0-0-0----------------3-0-3-3----------------------------------------------|

e|---------------------------------------------------------------------------|
B|---------------------------------------------------------------------------|
G|------4-4-4-4-4------------------------------------------------------------|Medley
D|-2-2--4-4-4-4-4-4-4--------------------------------------------------------|
A|-2-2--2-0-2-2-2-4-4--------------------------------------------------------|
E|-0-0------------2-2--------------------------------------------------------|


************************************

| /   slide up
| \   slide down
| h   hammer-on
| p   pull-off
| ~   vibrato
| +   harmonic
| x   Mute note
| b   Bend
| pb  Pre-bend
| br  Bend release
| pbr Pre-bend release
| brb Bend release bend

************************************
Tap to rate this tab
 
# A B C D E F G H I J K L M N O P Q R S T U V W X Y Z