Song name
# A B C D E F G H I J K L M N O P Q R S T U V W X Y Z

Misc Unsigned Bands - Prezebla Mafija - Gone Artificial tab

-------------------------------------------------------------------------------
			     Gone Atrificial - Prezebla Mafija
-------------------------------------------------------------------------------


Tuning: Standard E


Kitari

e|---------------------------------------------------------------------------|
B|---------------------------------------------------------------------------|
G|---------------4-4---------------------------------------------------------|
D|--2-5-2-2-2-2--4-3---5-5---------------------------------------------------|
A|--2-5-2-2-2-2--2-1---5-5---------------------------------------------------|
E|--0-3-0-0-0-0--------3-3---------------------------------------------------|

e|---------------------------------------------------------------------------|
B|---------------------------------------------------------------------------|
G|-------------------11-11-x--11---------------------------------------------|
D|--7-7-7-7-7-7-7-7--11-11-x--11--11-11-11-----------------------------------|
A|--7-7-7-7-7-7-7-7--8--8--x--8---11-11-11-----------------------------------|
E|--5-5-5-5-5-5-5-5---------------8--8--8------------------------------------|

e|---------------------------------------------------------------------------|
B|---------------------------------------------------------------------------|
G|---------------------------------------------------------------------------|
D|--7-7-5-2------2-5-7-7-7-7-------------------------------------------------|
A|--7-7-5-2------2-5-7-7-7-7-------------------------------------------------|
E|--5-5-3-0------0-3-5-5-5-5-------------------------------------------------|

e|---------------------------------------------------------------------------|
B|---------------------------------------------------------------------------|
G|----------------------5-4-2------------------------------------------------|
D|--6-6-5-2-2-2-2-------5-4-2-5-2-2------------------------------------------|
A|--6-6-5-2-2-2-2--3x---3-2-0-5-2-2---1x-------------------------------------|
E|--4-4-3-0-0-0-0-------------3-0-0------------------------------------------|


************************************

| /   slide up
| \   slide down
| h   hammer-on
| p   pull-off
| ~   vibrato
| +   harmonic
| x   Mute note
| b   Bend
| pb  Pre-bend
| br  Bend release
| pbr Pre-bend release
| brb Bend release bend

************************************
Tap to rate this tab
 
# A B C D E F G H I J K L M N O P Q R S T U V W X Y Z