Song name
# A B C D E F G H I J K L M N O P Q R S T U V W X Y Z

Misc Unsigned Bands - Prezebla Mafija - Mocnik tab

-------------------------------------------------------------------------------
			     Mocnik - Prezebla Mafija
-------------------------------------------------------------------------------


Tuning: Standard E


Kitari

e|---------------------------------------------------------------------------|
B|---------------------------------------------------------------------------|
G|---------------------------------------------------------------------------|Intro (z Basom)
D|--10-9---------------------------------------------------------------------|
A|--10-9---------------------------------------------------------------------|
E|--8--7---------------------------------------------------------------------|

e|---------------------------------------------------------------------------|
B|---------------------------------------------------------------------------|
G|---------------------------------------------------------------------------|Riff
D|--7-7-7-7-7-7-7-7-10-10-10-9--10-------------------------------------------|
A|--7-7-7-7-7-7-7-7-10-10-10-9--10-------------------------------------------|
E|--5-5-5-5-5-5-5-5-8--8--8--7--8--7-----------------------------------------|

e|---------------------------------------------------------------------------|
B|---------------------------------------------------------------------------|
G|---------------------------------------------------------------------------|Medley
D|--2-2-2-2-2-2-5-5-5-4------------------------------------------------------|
A|--2-2-2-2-2-2-5-5-5-4------------------------------------------------------|
E|--0-0-0-0-0-0-3-3-3-2------------------------------------------------------|



************************************

| /   slide up
| \   slide down
| h   hammer-on
| p   pull-off
| ~   vibrato
| +   harmonic
| x   Mute note
| b   Bend
| pb  Pre-bend
| br  Bend release
| pbr Pre-bend release
| brb Bend release bend

************************************
Tap to rate this tab
 
# A B C D E F G H I J K L M N O P Q R S T U V W X Y Z