Song name
# A B C D E F G H I J K L M N O P Q R S T U V W X Y Z

Misc Unsigned Bands - Prezebla Mafija - Pizdarija Grandes tab

-------------------------------------------------------------------------------
			     Pizdarija Grandes - Prezebla Mafija
-------------------------------------------------------------------------------


Tuning: Standard E


Kitari

e|---------------------------------------------------------------------------|
B|---------------------------------------------------------------------------|
G|--6-6-6--------------------------------------------------------------------|
D|--6-6-6----6-6-4-4-4-x-x-x-x-x-x-x-x-x-------------------------------------|Intro+Riff
A|--4-4-4----6-6-4-4-4-x-x-x-x-x-x-x-x-x-------------------------------------|
E|-----------4-4-2-2-2-x-x-x-x-x-x-x-x-x-------------------------------------|

e|---------------------------------------------------------------------------|
B|---------------------------------------------------------------------------|
G|--6-6-6--------------------------------------------------------------------|
D|--6-6-6----6-6-6-4-4-4-4-4-4-4-4-------------------------------------------|Vox+Riff
A|--4-4-4----6-6-6-4-4-4-4-4-4-4-4-------------------------------------------|
E|-----------4-4-4-2-2-2-2-2-2-2-2-------------------------------------------|

e|---------------------------------------------------------------------------|
B|---------------------------------------------------------------------------|
G|---------------------------------------------------------------------------|Refren
D|--6-6---4-4-4-4-2-2-4-6----------------------------------------------------|
A|--6-6---4-4-4-4-2-2-4-6----------------------------------------------------|
E|--4-4-0-2-2-2-2-0-0-2-4----------------------------------------------------|

e|---------------------------------------------------------------------------|
B|---------------------------------------------------------------------------|
G|------6h-------------------------------------------------------------------|Outro
D|------6h-------------------------------------------------------------------|
A|------4h-------------------------------------------------------------------|
E|---------------------------------------------------------------------------|


************************************

| /   slide up
| \   slide down
| h   hammer-on
| p   pull-off
| ~   vibrato
| +   harmonic
| x   Mute note
| b   Bend
| pb  Pre-bend
| br  Bend release
| pbr Pre-bend release
| brb Bend release bend

************************************
Tap to rate this tab
 
# A B C D E F G H I J K L M N O P Q R S T U V W X Y Z