Song name
# A B C D E F G H I J K L M N O P Q R S T U V W X Y Z

Misc Unsigned Bands - Prezebla Mafija - Striptiz In Wc tab

-------------------------------------------------------------------------------
			     Striptiz in WC - Prezebla Mafija
-------------------------------------------------------------------------------


Tuning: Standard E


Kitari

e|---------------------------------------------------------------------------|
B|---------------------------------------------------------------------------|
G|-5-5-5-5-4-4-4-------------------------------------------------------------|Riff
D|-5-5-5-5-4-4-4-2-2-2-2-2-2-------------------------------------------------|
A|-3-3-3-3-2-2-2-2-2-2-2-2-2-------------------------------------------------|
E|---------------0-0-3-0-0-0-------------------------------------------------|

e|-0-x-0-0-0-0---------------------------------------------------------------|
B|-0-x-0-0-0-0---------------------------------------------------------------|
G|-1-x-1-1-1-1---------------------------------------------------------------|
D|-2-x-2-2-2-2-5-5-5-5-------------------------------------------------------|Refren
A|-2-x-2-2-2-2-5-5-5-5-------------------------------------------------------|
E|-0-x-0-0-0-0-3-3-3-3-x-x-x-x-----------------------------------------------|

e|---------------------------------------------------------------------------|
B|---------------------------------------------------------------------------|
G|---------------------------------------------------------------------------|Medley
D|-2-5-2-2-2-2-5-5-5-5-7-7-7-7-----------------------------------------------|
A|-2-5-2-2-2-2-5-5-5-5-7-7-7-7-----------------------------------------------|
E|-0-3-0-0-0-0-3-3-3-3-5-5-5-5-----------------------------------------------|



************************************

| /   slide up
| \   slide down
| h   hammer-on
| p   pull-off
| ~   vibrato
| +   harmonic
| x   Mute note
| b   Bend
| pb  Pre-bend
| br  Bend release
| pbr Pre-bend release
| brb Bend release bend

************************************
Tap to rate this tab
# A B C D E F G H I J K L M N O P Q R S T U V W X Y Z